Am                                 Dm 
Изначальная точка нашей жизни - это роддом, 
                                    Am 
А конечная точка нашей жизни - это морг. 
         Am                                           Dm 
А в середине треть жизни мы спим, помолившись перед сном, 
                                                Am 
А в середине треть жизни мы пашем на заводе родном. 


                     Solo 

           -0-0-0-5-3-0-5--0-0-5-3-0-5--3---
           -------------------------------3-
           ---------------------------------
           ---------------------------------
           ---------------------------------
           ---------------------------------

      
   ------------------------3--3-----------------------------
   - 3-1-3-5-3-1-3----1-3-5--5--5---3-1---------------------
   -------------------------------------2-------------------
   ---------------------------------------------------------
   ---------------------------------------------------------
   ---------------------------------------------------------

  ---------------0-0-5-3-0-5----5-3--------------------------------
  -----------------------------------3-3---------------------------
  2-5--5--5--5---------------------------5--2-5-9--7-7-7---7--7--7-
  -----------------------------------------------------------------
  -----------------------------------------------------------------
  -----------------------------------------------------------------


  -----------------------------------------------------------------
  -----------------------------------------------------------------
  --2-5-7-5-7-5-7-5---9-12-9-12-9-7-5-2---7-7--5--5----------------
  -----------------------------------------------------------------
  -----------------------------------------------------------------
  -----------------------------------------------------------------


           G                    F                Am 
Но кто сказал, что мертвецы не видят сны - это сказки! 
        G                 F                  Am 
Кто сказал, что они не бывают грустны - это ложь! 
        G                  F              Am 
Кто сказал, что они не мечтают о половой ласке! 
      G              F              Am 
Ты и сам убедишься в этом когда помрешь! 

Но кто сказал, что мертвецы не видят сны - это сказки! 
Кто сказал, что они не бывают грустны - это ложь! 
Кто сказал, что они не мечтают о половой ласке! 
Ты и сам убедишься в этом когда помрешь! 

Я и сам не мог понять, пока не лег под осиновый крест. 
Я не мог понять, пока не лег в дом из шести досок. 
Я не мог понять, пока не получилась перемена мест, 
А только понял лишь тогда, когда был порван моей жизни кусок. 

Но кто сказал, что мертвецы не видят сны - это сказки! 
Кто сказал, что они не бывают грустны - это ложь! 
Кто сказал, что они не мечтают о половой ласке! 
Ты и сам убедишься в этом когда помрешь! 



Текст, аккорды и табулатура для песни "Когда помрешь", исполняет "Сектор Газа".
Используемые в песне аккорды можно найти в разделе Как брать аккорды. Аккорды для шестиструнной гитары. Другие песни можно найти на нашем сайте, воспользовавшись алфавитным указателем вверху страницы.


 
Ошибка в тексте? Выделите ошибку и нажмите Ctrl+Enter