Hm      Em       Hm          F#
Мне на днях исполнилось 16 лет. 
    Hm      Em       Hm       F# Hm
Захотел я двуколесный трандулет. 
    Hm      Em       Hm          F#
Я к батяне подошел, сказал:"Купи! 
    Hm      Em       Hm       F# Hm
Ты на "Яву" мне кусочек накопи!" 
Мой папаша был хронический алкаш, 
Но на счастье на него напала блажь. 
Он в квартире все бутылки пособрал, 
И на пару тысяч он посуду сдал. 
A       E      Hm        Hm
В "Яву", в "Яву" сел я на халяву! 
В "Яву", в "Яву" сел я на халяву! 

Я пинком заехал заводной рычаг. 
Дай Бог, чтоб движок мой мощный не зачах. 
До отказа ручку газа накрутил. 
Тьфу ты! Черт! Другой я бабку зацепил! 
Ну и пусть! Была бы техника цела! 
Бабок много, "Ява" у меня одна. 
Бабку люди обнаружат по утру. 
А я тачку нежно тряпочкой протру. 

"Ява", "Ява"! Бабка ух разява! 
"Ява", "Ява"! Бабка ух разява! 

Подвезти раз попрсил меня дружок. 
Дал я гари так, что покраснел движок. 
Вроде тихо он сидел и не дрожал, 
А взади все сиденье, сука, обдристал. 
Раз подругу посадил на мотоцикл - 
У нее от страха прекратился цикл. 
Платье ветром сдуло, обнажился срам, 
И затычки разлетелись по кустам. 

"Ява", "Ява"! Не дрожи, шалава! 
"Ява", "Ява"! Не дрожи, шалава! 



Припев(3):

         Hm    Hm    Em Em   Hm  Hm                     F# F#    Hm  Hm        Em Em
E|--10--10--10-----12----10--10-----------------------10--10--10-----12----10--12---
B|----12--12--12------------12----12--10--12------------12--12--12-----12------------
G|--------------------------------------------------11-------------------------------------
D|------------------------------------------------------------------------------------------
A|------------------------------------------------------------------------------------------
E|------------------------------------------------------------------------------------------
   Hm         F#                   Hm Hm  
--13--13--13----12--10-------------------------------------------------------------------
-----------------------------12-------------------------------------------------------------
---------------------------------------------------------------------------------------------
---------------------------------------------------------------------------------------------
---------------------------------------------------------------------------------------------
---------------------------------------------------------------------------------------------


Как-то пьяный возвращался я домой. 
Гнал на всю катушку мотоцикл свой. 
Было весело, я громко песни пел. 
И на пень трухлявый спьяну налетел. 
(?-?-?-?-?), погнулось колесо. 
Метров пять я носом пропахал песок. 
Я к утру домой обломки принесу. 
Был я с "Явой", а теперь я отсосу. 

"Ява", "Ява"! Пососи, разява! 
"Ява", "Ява"! Пососи, разява! 


Текст, аккорды и табулатура для песни "Ява", исполняет "Сектор Газа".
Используемые в песне аккорды можно найти в разделе Как брать аккорды. Аккорды для шестиструнной гитары. Другие песни можно найти на нашем сайте, воспользовавшись алфавитным указателем вверху страницы.


 
Ошибка в тексте? Выделите ошибку и нажмите Ctrl+Enter