Dm                 G
1. Задержка дыхания целуй на прощание
  Am                       F
И дай им телефон, где нас нет.

Последним касанием проверить раскаянье
Ну что ты будешь делать и с кем

Dm                G
Довериться запахам, раскинуться веером

Бас:
      Am                     F 
D-----2—0----------2--0-2-0--0------
A------------3—0----------------3--0
И взглядом своим выключить свет.


Припев:

Бас:
         Dm
D------2-0----2
A-0-3------------0
Не разрывать шелка,

             G
D-2---0------0---2
A----------3-------
E------------------3
Греться в твоих руках

           Am        F
D-2-0-------0--2
A-------3--------0
Падать на дно морей.

            Dm
D--------2—0----2
A-0---3-----------0
Сбиться на пол пути

             G
D-2---0------0--2
A--------3---------
E------------------3
Там где нас не найти
        Am    F
D-2-0---0---2
A-----3
Не удержаться.


2. Коснуться ресницами, нарушить границы
И не доедая завтрак курить

Могу для тебя сейчас включить твой любимый джаз
И просто встать посуду помыть

А хочешь я запросто уйду в кругосветное
И буду каждый вечер звонить.


Припев:   (2 раза)

         Dm
D------2-0----2
A-0-3------------0
Не разрывать шелка,

             G
D-2---0------0---2
A----------3-------
E------------------3
Греться в твоих руках

           Am        F
D-2-0-------0--2
A-------3--------0
Падать на дно морей.

            Dm
D--------2—0----2
A-0---3-----------0
Сбиться на пол пути

             G
D-2---0------0--2
A--------3---------
E------------------3
Там где нас не найти
        Am    F
D-2-0---0---2
A-----3
Не удержаться.

Проигрыш:

Dm  G  Am  F Dm  G  Am  F

Solo:
        Dm          G           Am   F
E-----0---0---0-------0---0-------0
H---1---3-------3-1-3-------3-1-3--
G-2---------2-----------0----------

        Dm          G           Am   F
E-----0---0---0-------0---0-0------0
H---1---3-------3-1-3---------3-1-3
G-2---------2-----------0----------

Припев:    (2 раза)


Текст, аккорды и табулатура для песни "Не удержаться", исполняет "Сегодня Ночью".
Используемые в песне аккорды можно найти в разделе Как брать аккорды. Аккорды для шестиструнной гитары. Другие песни можно найти на нашем сайте, воспользовавшись алфавитным указателем вверху страницы.


 
Ошибка в тексте? Выделите ошибку и нажмите Ctrl+Enter