This is off of the freddy vs.jason soundtrack.
This song is in Drop D Tuning DADGBE.

.=P.M.

(Intro)
E-----------------------------------|
B-----------------------------------|
G-10(Pick Really Fast)--------------|
D-----------------------------------|
A-----------------------------------|
D-----------------------------------|

E-----------------------------------------------------------|
B-----------------------------------------------------------|
G-----------------------------------------------------------|
D-3/6-6--xxx--6/8-8--xxx--1110-10--xxx--108-8--xxx--------|
A-3/6-6--xxx--6/8-8--xxx--1110-10--xxx--108-8--xxx--------|
D-3/6-6--xxx--6/8-8--xxx--1110-10--xxx--108-8--xxx--------|

(Vers)
E-----------------------------|
B-----------------------------|
G-----------------------------|
D-----------------------------|
A-------4--1------------------|
D-3--6------------------------|

(Pre-Chours)
E-------------------------------|
B-------------------------------|
G-------------------------------|
D-------------------------------|
A-------------444-44111-3-------|
D-333-33666-66----------3-------|
  ... ..... ..... .....

(Chours)
E---------------------------------|
B---------------------------------|
G---------------------------------|
D-3333-8888-666-6666-33-----------|
A-3333-8888-666-6666-33-----------|
D-3333-8888-666-6666-33-----------|
            ...    .

(Interlude Or Bridge)
E----------------------------|
B----------------------------|
G----------------------------|
D-33-363-1-------------------|
A-33-363-1-------------------|
D-33-363-1-------------------|
  .. ... .

(Bridge)
E-----------------------|
B-----------------------|
G-----------------------|
D-33-363-1--------------|
A-33-363-1--------------|
D-33-363-1--------------|

If You Have Any Questions Email Me At [email protected]
Have Fun.


Текст, аккорды и табулатура для песни "Out Of My Way", исполняет "Seether".
Используемые в песне аккорды можно найти в разделе Как брать аккорды. Аккорды для шестиструнной гитары. Другие песни можно найти на нашем сайте, воспользовавшись алфавитным указателем вверху страницы.


 
Ошибка в тексте? Выделите ошибку и нажмите Ctrl+Enter