-------------------------------------------------------------------------------
			     Gasoline- Seether
-------------------------------------------------------------------------------

Tabbed by:Jeremy Kowalczyk
Email:[email protected]
Just figure out the rythem of it,it takes to long to put down how many times he hits the note
Tuning:DADGBE
Intro(Repeat that 4 times)
E|---------------------------------------------------------------------------
B|---------------------------------------------------------------------------
G|---------------------------------------------------------------------------
D|--11-xxxxxx----------------------------------------------------------------
A|--11-xxxxxx----------------------------------------------------------------
D|--11-xxxxxx----------------------------------------------------------------
Intro Continued(repeat that like 3 times,but on the 4th time..look on the 2nd intro continued))
E|----------------------------------------------------------------------------
B|----------------------------------------------------------------------------
G|------8-6slideup--9---------------------------------------------------------
D|--11--x-x---------x---------------------------------------------------------
A|--11--6—4slideup--7---------------------------------------------------------
D|--11------------------------------------------------------------------------
2nd intro continued
E|----------------------------------------------------------------------------
B|----------------------------------------------------------------------------
G|------8-6slideup-11---------------------------------------------------------
D|--11--x-x---------x---------------------------------------------------------
A|--11--6—4slideup--9---------------------------------------------------------
D|--11------------------------------------------------------------------------
Verse,the bass is playing and the guitar just hits a couple of notes……..)
E|----------------------------------------------------------------------------
B|----------------------------------------------------------------------------
G|----------------------------------------------------------------------------
D|--xx-11---------------------------------------------------------------------
A|--xx-11---------------------------------------------------------------------
D---xx-11---------------------------------------------------------------------

Chorus
E|----------------------------------------------------------------------------
B|----------------------------------------------------------------------------
G|----------------------------------------------------------------------------
D|-11—4slideup6---------------------------------------------------------------
A|-11—2slideup4---------------------------------------------------------------
D|-11-------------------------------------------------------------------------

Thats it,and by the way the 11's arent 11's there 1's!

| /  slide up
|   slide down
| h  hammer-on
| p  pull-off
| ~  vibrato
| +  harmonic
| x  Chuck
===============================================================================


Текст, аккорды и табулатура для песни "Gasoline", исполняет "Seether".
Используемые в песне аккорды можно найти в разделе Как брать аккорды. Аккорды для шестиструнной гитары. Другие песни можно найти на нашем сайте, воспользовавшись алфавитным указателем вверху страницы.


 
Ошибка в тексте? Выделите ошибку и нажмите Ctrl+Enter