Song:  Gasoline
Artist:  Seether
Tabbed by:  ўorrupted_angel_X

I got sick of the abundance of shitty tabs for this kick-ass song, so I tabbed it
myself.  A few of the others were close but left all sorts of shit out.  This one
sounds pretty good.  I arranged it for one guitar.  It’s my first tab so bare
with me.  Note that this song could be played in drop D tuning as well, just play
everything on the E string two frets higher.

Standard tuning, down Ѕ step:  Eb, Ab, Db, Gb, Bb, eb.

Intro      (x3)             then...     (x1)      |--pm--|
|------------------------------------------------------------
|------------------------------------------------------------
|-------------------------------------------------/10--10----
|--2-2-x-x--x--x--x--x-x-x--------2-2-x-x--x--x--x/10--10----
|--2-2-x-x--x--x--x--x-x-x--------2-2-x-x--x--x--x/8---8-----
|--0-0-x-x--x--x--x--x-x-x--------0-0-x-x--x--x--x-----------

Riff 1          (x3)              then...              (x1)
         |--------pm--------|		       |--------pm--------|
|------------------------------------------------------------------------
|------------------------------------------------------------------------
|--------9-9--97--7-7/10-10-10----------------9-9--97--7-7/12-12-12----
|--2-2-x-9-9--97--7-7/10-10-10----------2-2-x-9-9--97--7-7/12-12-12----
|--2-2-x-7-7--75--5-5/8--8--8-----------2-2-x-7-7--75--5-5/10-10-10----
|--0-0-x---------------------------------0-0-x---------------------------

Verse (Riff 2)
|-----------------------------------------------------------------------------
|-----------------------------------------------------------------------------
|-----------------------------------------------------------------------------
|--2-2-x-x-------------------------------------------------------x-2-2-x-x----
|--2-2-x-x-------------------------------------------------------x-2-2-x-x----
|--0-0-x-x-------------------------------------------------------x-0-0-x-x----
1“Last night I saw that beauty queen, watched her paint her face on.”
2”Last night I saw that beauty queen, she’s getting’ high on Revlon.”

Verse (Riff 3)
|----------------------------------------------------------------
|----------------------------------------------------------------
|----------------------------------------------------------------
|-----------------------------------------------------9h7h9------
|---------------------------------------------------7-------7----
|----------------------------------------------------------------
1“I wanna be that magazine that she bases life on.”
2“I wanna be that magazine that she wastes her life on.”

***The Intro is repeated during this part.***

“I wanna waste her monthly blood.
 I wanna get some of my love.  
 I wanna get some gasoline, and burn the house down!”

Chorus (x4)
|---------------------------------
|---------------------------------
|-------5/7-7-7-7-----------------
|--2-2--5/7-7-7-7--5-5-5-5-x-x----
|--2-2--3/5-5-5-5--5-5-5-5-x-x----
|--0-0--3/5-5-5-5--3-3-3-3-x-x----
“She’s got nothin’ to say.
 She’s got bills to pay.
 She’s got no one to hate,
 Except for me!”

***Here, repeat Riff 1 through the Chorus.***

Bridge 1         (x4)
|-----------------------------------
|-----------------------------------
|-----------------------------------
|--2-2--76--6-65--5-54-43-3----
|--2-2--76--6-65--5-54-43-3----
|--0-0--54--4-43--3-32-21-1----

Bridge 2     (x2) Played with wah pedal.
|-------------------------------------------------------------------
|-------------------------------------------------------------------
|--9-9-9-9-9-9-9-9-9-9-9-9-9-9-9-9-9-9-9-9-9-9-9-9-9-9-9-9-7-7-7----
|-------------------------------------------------------------------
|-------------------------------------------------------------------
|-------------------------------------------------------------------
“When I saw that beauty queen, watched her paint her face on.
 I wanna be the one unclean that she wipes her ass on.”

***Repeat: Riff 3 (x1)
         Intro (x2)
         Chorus (x8)

“I wanna waste her monthly blood.
 I wanna get some of my love.  
 I wanna get some gasoline, and burn the house down!
 She’s got nothin’ to say.
 She’s got bills to pay.
 She’s got no one to hate,
 Except for me!
 She’s got nothin’ but shame.
 She takes pills for pain.
 She’s got no one to blame.
 Except for me.

Outro      (x3)     |-pm-|    then...            (x1)     |-pm-|
|---------------------------------------------------------------------
|---------------------------------------------------------------------
|---------------------------------------------------------------------
|--0-0-x-x--x--x-x-x-8-7----------------0-0-x-x--x--x-x-x-10-10-10----
|--0-0-x-x--x--x-x-x-8-7----------------0-0-x-x--x--x-x-x-10-10-10----
|--0-0-x-x--x--x-x-x-6-5----------------0-0-x-x--x--x-x-x--8--8--8----


Текст, аккорды и табулатура для песни "Gasoline", исполняет "Seether".
Используемые в песне аккорды можно найти в разделе Как брать аккорды. Аккорды для шестиструнной гитары. Другие песни можно найти на нашем сайте, воспользовавшись алфавитным указателем вверху страницы.


 
Ошибка в тексте? Выделите ошибку и нажмите Ctrl+Enter