Submitted by:Iamveryswedish
Tuning: Drop D
Intro: (Fast rock 200)Guitar 1:
E----------------------------------------------------------------|
B----------------------------------------------------------------|
G----------------------------------------------------------------|
D---11-------11------11------11----------------------------------|
A-0----x5--11---x5--9---x5-10---x5-------------------------------|
D----------------------------------------------------------------|play 4 times
(Guitar 2 comes in after second time playing intro)

Guitar 2:
bridge

E-----------------------------------------------------------------------------|
B-0-0-0-0--0-0-0-0--0-0-0-0---------------------------------------------------|
G-0-0-0-0--0-0-0-0--0-0-0-0---------------------------------------------------|
D-0-0-0-0--0-0-0-0--0-0-0-0---------------------------------------------------|
A-0-0-0-0--0-0-0-0--0-0-0-0---------------------------------------------------|
D-0-0-0-0--0-0-0-0--0-0-0-0---------------------------------------------------|
PM..........................
First part
Both guitars 1&2:                Riff 1:
E------------------------------------------------------------------|
B------------------------------------------------------------------|
G------------------------------------------------------------------|
D-0-0-10--0-0-10--0-0-8--0-0-8-----0-0-10--0-0-8h------------------|
A-0-0-10--0-0-10--0-0-8--0-0-8-----0-0-10--0-0-8b------------------|
D-0-0-10--0-0-10--0-0-8--0-0-8---0-0-10--0-0-8-x 8-----------------|

Guitar 1: riff 2
E--------------------------------------------------------------------|
B--------------------------------------------------------------------|
G--------------------------------------------------------------------|
D-0-x-x-0-x-x-0-x-x--5-7-5--0-x-x-0-x-x-0-x--7-5-7--5-7-5-7-5-7-3-0--|
A-0-x-x-0-x-x-0-x-x--5-7-5--0-x-x-0-x-x-0-x--7-5-7--5-7-5-7-5-7-3-0--|
D-0-x-x-0-x-x-0-x-x--5-7-5--0-x-x-0-x-x-0-x--7-5-7--5-7-5-7-5-7-3-0--|


Order of the song:
1ntro x4
bridge x 2
first partx2
Riff 1 x

riff 2 x1


Текст, аккорды и табулатура для песни "Fuck It", исполняет "Seether".
Используемые в песне аккорды можно найти в разделе Как брать аккорды. Аккорды для шестиструнной гитары. Другие песни можно найти на нашем сайте, воспользовавшись алфавитным указателем вверху страницы.


 
Ошибка в тексте? Выделите ошибку и нажмите Ctrl+Enter