Band:Seether
Song:Fine Again
Album:Disclaimer
Tabbed by:Humberto Manzolini
E-Mail:[email protected]

This is my first tab but I'm sure it is correct.

Tuning:Standard (E,A,D,G,B,E)

Intro
Guitar 1
E|-----------------------------------------------------------|
B|-----------------------------------------------------------|
G|---------------------------2-2-----------------------------|
D|-----4-------7---------2---0-0-------4-------7---------2---|
A|---4-------7---x-----2---2-0-0-----4-------7---x-----2---2-|
E|-2-----2/5-------5-0-----------0-2-----2/5-------5-0-------|

Guitar2
E|-4-----5-4---4-5--4---5---5-4---4-2-|
B|---5-5-----5--------5---5-----5-----|
G|------------------------------------|
D|------------------------------------|
A|------------------------------------|
E|------------------------------------|

Verse
E|-------------------------------|
B|-------------------------------|
G|-----------------------2-2-2-2-|
D|-4-4--7777-7-7--2-2-2--0-0-0-0-|
A|-2-2--5555-5-5--2-2-2--0-0-0-0-|
E|-2-2--5555-5-5--0-0-0----------|

Chorus
E|------------------------------|
B|------------------------------|
G|------7777-7-7-------9999-9-9-|
D|-4-4--7777-7-7--9-9--9999-9-9-|
A|-2-2--5555-5-5--7-7--7777-7-7-|
E|-2-2--5555-5-5--7-7--7777-7-7-|

Repeat Verse

Repeat Chorus

Bridge             3x
E|-----|-------------|-----|
B|-----|-------------|-----|
G|-----|-------------|-----|
D|-----|-------------|-----|
A|--5--|-52-2-2/5-5-|-52-|
E|-----|-------------|-----|

Solo
|-9----10----9----9----10----|
|---10----10---10---10----10-|
|----------------------------|
|----------------------------|
|----------------------------|
|----------------------------|

Repeat Chorus

Last Chord
|----|
|----|
|----|
|-4--|
|-2--|
|-2--|

Any comments you can e-mail me at [email protected]

Tab key
X Mute note
/ Slide up


Текст, аккорды и табулатура для песни "Fine Again", исполняет "Seether".
Используемые в песне аккорды можно найти в разделе Как брать аккорды. Аккорды для шестиструнной гитары. Другие песни можно найти на нашем сайте, воспользовавшись алфавитным указателем вверху страницы.


 
Ошибка в тексте? Выделите ошибку и нажмите Ctrl+Enter