-------------------------------------------------------------------------------
			     Seether - Fine Again
-------------------------------------------------------------------------------

By:zero
ok, this song is hard, and i just found out that there is two different types
of tunning, so here it is.
Guitar 1 Tunning(EADGBe)
Guitar 2 Tunning(BEADF#b)- i really recomend, really thick strings, normal
strings cant stand up to this much slack.

Guitar 1 intro./fill 1
e|------------------------------------------------|
B|---------9---9-9---9-----9---9-10---10-9---9----|
G|------11---9-----9---10----9------9------9---11-|
D|---11-------------------------------------------|
A|-9----------------------------------------------|
E|------------------------------------------------|

Guitar 2 intro(w/out distortion)
 b|------------------------------------|
F#|------------------------------------|
 D|-----4-------7-------6--------------|
 A|---4-------7---0-0-----7---5-5--x---|
 E|-2-----2/5-----0-0-7-----7-5-5--x-0-|
 B|-------------------5-------3-3--x---|

Guitar 2:verse
 b|---------------------------------------|
F#|---------------------------------------|
 D|-4-4-4--x--7-7-7--x-x------------------|
 A|-4-4-4--x--7-7-7--x-x--7-7-7--x--5-5-5-|
 E|-2-2-2--x--5-5-5--x-x--7-7-7--x--5-5-5-|
 B|-----------------------5-5-5--x--3-3-3-|

Guitar 1:end figure
e|-14-----|
B|-14--12-|
G|--------|
D|--------|
A|--------|
E|--------|

Guitar 2:chorus(with distortion)
 b|----------------------------------------|
F#|----------------------------------------|
 D|-4-4-4--x-x-----------------------------|
 A|-4-4-4--x-x--5-5-5--2-2-2--x--7-7-7-7-7-|
 E|-2-2-2--x-x--5-5-5--2-2-2--x--7-7-7-7-7-|
 B|-------------3-3-3--0-0-0--x--5-5-5-5-5-|

Guitar 2:bridge
 b|------------------------------------|
F#|------------------------------------|
 D|-------12-------12------------9-----|
 A|----12-------12-------12----9-----9-|
 E|-10-------10-------10-----7-----7---|
 B|------------------------------------|

Guitar 1:with distortion
e|-------------------|
B|-------------------|
G|-------------------|
D|-------------------|
A|-5-5/2-2-2/5-5-5/2-|
E|-------------------|

Guitar 1:inturlude
e|-9----10----9----10----9----10----9----10----|
B|---10----10---10----10---10----10---10----10-|
G|---------------------------------------------|
D|---------------------------------------------|
A|---------------------------------------------|
E|---------------------------------------------|

guitar 1:outro/part 1
e|-9----10----12----10----9----10----12----10----|
B|---10----10----10----10---10----10----10----10-|
G|-----------------------------------------------|
D|-----------------------------------------------|
A|-----------------------------------------------|
E|-----------------------------------------------|

part 2
e|-------10-9----10-9----10----12----10----|
B|-10-10------10------10----10----10----10-|
G|-----------------------------------------|
D|-----------------------------------------|
A|-----------------------------------------|
E|-----------------------------------------|

part 3
e|-12----12-12-12-12-12-12-12-12-12-12-12-12-12-12-12-12-12-12-12-12-12-12--|
B|----10---------------------------------------------------------------------|
G|---------------------------------------------------------------------------|
D|---------------------------------------------------------------------------|
A|---------------------------------------------------------------------------|
E|---------------------------------------------------------------------------|

guitar 2:end(let ring)
 b|----|
F#|----|
 D|-4--|
 A|-4--|
 E|-2--|
 B|----|

heres how its played
|Intro| both guitars

|verse 1|(guitar 2)

it seems that every day is the same, im left to discover my own
it seems that every thing is gray and there is no color to behold

|pre-chorus|(guitar1 intro/fill)(guitar 2 verse)

they(you) say its over, and im fine(i can sigh) again
try(why try) to stay sober, feels like im diying here.

|chorus|(guitar2 chorus)
and i am, aware now, on how everything is going to be fine
for me, too late, im in hell
and i am, prepared now, seems everything is going to be fine
for me, too late, just as well

(play guitar 2 intro)

|verse 2|(played the same as verse 1)
i feel the dream in me expire, and ther is no one left to blame it on
i here you label me a liar, cause i cant seem to get this through.

|prechorus|(sing it with the words in parathasis first)

|chorus|

|bridge|(both guitars)
and im not scared now
i must assure you(your never gonna get away)
and im not scared now
and in not scared now(no)

|interlude|(guitar 1 plays interlude)(guitar 2 plays chorus)

|outro|(guitar 2 plays chorus) (guitar 2 inturlude)
and i am aware now on how everythings gonna be fine again
too late im in hell
(outro part 10
and i am prepared now, seems everythings gonna be fine
too late just as well.
(outro part 2)
and i am, prepared now, seems everything gonna be fine
for me for me, for my self, for me for me for my self
(outro part 3)
i am prepared now  for myself
and i am prepared now and i am fine, again.

*when the singer says fine guitar 2 plays the end, 
and guitar 1 plays guitar end figure*

and that is it boys and girls, that is absolutely everything.
enjoy!

===============================================================================


Текст, аккорды и табулатура для песни "Fine Again", исполняет "Seether".
Используемые в песне аккорды можно найти в разделе Как брать аккорды. Аккорды для шестиструнной гитары. Другие песни можно найти на нашем сайте, воспользовавшись алфавитным указателем вверху страницы.


 
Ошибка в тексте? Выделите ошибку и нажмите Ctrl+Enter