Seether- Fine Again
Album- Disclaimer
Tabbed by- Alex Farner
Tuning- Drop D (D A D G B E)
(2 Guitarists)

Intro (Guitar 1)
E----------------------------------
B----------------------------------
G----------------------1----------- x2
D------4-------7---------2---0-0---
A----4-------7-------------2-0-0---
D--4-----4-7-----x-x-2-------0-0---

Intro (Guitar 2)
E---------------------------------------------------
B--9---9-10---10-9---9-10---9---9-10---10-9---9-7---
G----9------9------9----------9------9------9-------
D---------------------------------------------------
A---------------------------------------------------
D---------------------------------------------------

Verse 1(Guitar 1)
E-------------------------------------------------------------
B-------------------------------------------------------------
G------------------------7-7-7-------------------------------- x4
D--4-4-4-4-7-7-7-2-2-2-2-7-7-7--4-4-4-4-7-7-7-2-2-2-2-0-0-0---
A--4-4-4-4-7-7-7-2-2-2-2-5-5-5--4-4-4-4-7-7-7-2-2-2-2-0-0-0---
D--4-4-4-4-7-7-7-2-2-2-2--------4-4-4-4-7-7-7-2-2-2-2-0-0-0---

Verse 1(Guitar 2) doesn’t come in until second half of verse 1
E-----9--7--------9--7--------------------------------------------------
B--9---------------------9---9-10---10-9---9-10--9---9-10---10-9---9-7--
G-----------9-11-----------9------9------9---------9------9------9------
D-----------------------------------------------------------------------
A-----------------------------------------------------------------------
D-----------------------------------------------------------------------

Chorus (Both Guitars)
E------------------------------------------
B------------------------------------------
G----------------7-7-4-4-4-4--------------- x4
D--4-4-4-x-x-x-x-7-7-4-4-4-4-2-2-2-2-2-2---
A--4-4-4-x-x-x-x-5-5-2-2-2-2-2-2-2-2-2-2---
D--4-4-4-x-x-x-x-------------2-2-2-2-2-2---

Verse 2(Guitar 1)
E---------------------------------------------------------------
B---------------------------------------------------------------
G----------------------1--------------------------------7-7-7---
D------4-------7---------2---0-0--4-4-4-4-7-7-7-2-2-2-2-7-7-7---
A----4-------7-------------2-0-0--4-4-4-4-7-7-7-2-2-2-2-5-5-5---
D--4-----4-7-----x-x-2-------0-0--4-4-4-4-7-7-7-2-2-2-2---------

E-------------------------------------------------------------
B-------------------------------------------------------------
G------------------------7-7-7--------------------------------
D--4-4-4-4-7-7-7-2-2-2-2-7-7-7--4-4-4-4-7-7-7-2-2-2-2-0-0-0---
A--4-4-4-4-7-7-7-2-2-2-2-5-5-5--4-4-4-4-7-7-7-2-2-2-2-0-0-0---
D--4-4-4-4-7-7-7-2-2-2-2--------4-4-4-4-7-7-7-2-2-2-2-0-0-0---

Verse 2 (Guitar 2)
E-------------------------------9--7------9--7--------------------------
B--9---9-10---10-9---9-10---9-------------------9---9-10---10-9---9-10--
G----9------9------9-----------------9-11---------9------9------9-------
D-----------------------------------------------------------------------
A-----------------------------------------------------------------------
D-----------------------------------------------------------------------

E--------------------------
B--9---9-10---10-9---9-7---
G----9------9------9-------
D--------------------------
A--------------------------
D--------------------------

Chorus (Both Guitars)
E------------------------------------------
B------------------------------------------
G----------------7-7-4-4-4-4--------------- x4
D--4-4-4-x-x-x-x-7-7-4-4-4-4-2-2-2-2-2-2---
A--4-4-4-x-x-x-x-5-5-2-2-2-2-2-2-2-2-2-2---
D--4-4-4-x-x-x-x-------------2-2-2-2-2-2---

Bridge (Guitar 1)
E--------------------------------
B--------------------------------
G-------------------------------- x4
D--------------------------------
A--5(let ring)5/2(let ring)25---
D--------------------------------

Solo & Chorus(Guitar 1)
E------------------------------------------
B------------------------------------------
G----------------7-7-4-4-4-4--------------- x2 for solo
D--4-4-4-x-x-x-x-7-7-4-4-4-4-2-2-2-2-2-2--- x4 for chorus
A--4-4-4-x-x-x-x-5-5-2-2-2-2-2-2-2-2-2-2---
D--4-4-4-x-x-x-x-------------2-2-2-2-2-2---

Solo & Chorus(Guitar 2)
E--9--10--9--10--9--10--9--10---
B---10--10-10--10-10--10-10-----
G------------------------------- x2 for solo
D------------------------------- x4 for chorus
A-------------------------------
D-------------------------------

Outro (Guitar 1)
E------------------------------------------    E----------------
B------------------------------------------    B----------------
G----------------7-7-4-4-4-4--------------- x2 G----------------
D--4-4-4-x-x-x-x-7-7-4-4-4-4-2-2-2-2-2-2---    D--4-------------
A--4-4-4-x-x-x-x-5-5-2-2-2-2-2-2-2-2-2-2---    A--4-------------
D--4-4-4-x-x-x-x-------------2-2-2-2-2-2---    D--4(let ring)---

Outro (Guitar 2)
E--12----12----12----12----12----12----12----12------
B-----10----10----10----10----10----10----10----10---
G---------------------------------------------------- x2
D----------------------------------------------------
A----------------------------------------------------
E----------------------------------------------------

that’s it.  seether is a great band and their cd is definitely worth getting.
if you have any corrections or comments, e-mail me at [email protected] 


Текст, аккорды и табулатура для песни "Fine Again", исполняет "Seether".
Используемые в песне аккорды можно найти в разделе Как брать аккорды. Аккорды для шестиструнной гитары. Другие песни можно найти на нашем сайте, воспользовавшись алфавитным указателем вверху страницы.


 
Ошибка в тексте? Выделите ошибку и нажмите Ctrl+Enter