Tabbed By:Jeremy Kowalczyk
Album:Disclaimer
tuning
EADGBE

SEETHER IS ONE OF MY FAVORITE BANDS,I AM GONNA TRY AND TAB
EVERY SOnG FOR YOU!i EVEN ASKED SHAUN HOW TO PLAY THE CHORUS
SO I KNOW ITS RIGHT.

INTRO(the bass is playing then u hit harmonics)
E--------------------------0----------------
B--------------------------1----------------
G--------------------------2----------------
D--5*----------------------2----------------
A----5*-------------------------------------
E-------------------------------------------

Chorus
yOU CAN FIGURE OUT HE STRUMMING,ITS PRETTY SIMPLE
E--2------0-------------------------
B--2------1----1--------------------
G--0------2----0--------------------
D--0--3---2----2--------------------
A--2--3--------3--------------------
E--3--1-----------------------------
   G           C

CHORUS 2
AGAIN U SHOUL NO THE STRUMMING
E----------------------------------------
B----------------------------------------
G----------------------------------------
D--22222-44444-55555-77777-----------2-5-
A--00000-22222-33333-55555-------5-3-0-3-
E--------------------------------3-1---3-

BRIDGE
STRUMMING AGAIN(U GUESS IT)
E----------------------------------------
B----------------------------------------
G----------------------------------------
D-----7(OR 5-5-7)-----5-7-2--------------
A--2--5---------------3-5-0--------------
E--0-------------------------------------

SOLO
JUST FIGURE OUT HOW MANY TIMES TO HIT THE NOTES
E-----------------------------------------
B-----------------------------------------
G--12-14-16-17P1617P16---12-14-9-11-12-14-
D-----------------------------------------
A-----------------------------------------
E-----------------------------------------

THATS IT,E-MAIL ME AT [email protected]


Текст, аккорды и табулатура для песни "Fade Away", исполняет "Seether".
Используемые в песне аккорды можно найти в разделе Как брать аккорды. Аккорды для шестиструнной гитары. Другие песни можно найти на нашем сайте, воспользовавшись алфавитным указателем вверху страницы.


 
Ошибка в тексте? Выделите ошибку и нажмите Ctrl+Enter