Yo this took me a real long time to figure out and ill assure u that its
n100 % perfect, I’ve been playing the guitar for 6 years now and ill assure
u that any tab I submit will be a 100$ perfect, now this is the whole song,
except the littele interlude at the end, ill put that up soon….and doubts or
questions email me at [email protected]

Standard tuning

Intro Guitar 1
|----------------------------------------------------------------|
|----------------------------------------------------------------|
|----------------------------------------------------------------|
|----------------------------------------------------------------|
|-----2--3-2-2------2--3-2-2-------------------------------------|
|-1-1--1----1---3-3--3----1---5-5-5-5-7-7-7-7-8-8-8-8-10-10-10-

Intro Guitar 2 (guitar 1 plays and gutar 2 comes in on second time)
|-0-|
|-1-|   Let Ring
|-2-|
|-2-|
|-0-|
|-0-|

Verse
|--------------------------------------|       X4
|--1---------------0--0p1h0------------|
|----(Let Ring)---0--------0------5-7h5|
|-3-------------------------0---7--7---|
|--------------------------------------|
|--------------------------------------|

Chorus (listen for strumming pattern)

    G       F      Am     C
|3-3-3-3--1-1-1--0-0-0---0-0----
|3-3-3-3--1-1-1--1-1-1---1-1----
|0-0-0-0--2-2-2--2-2-2---2-2----
|0-0-0-0--3-3-3--2-2-2---3-3----
|2-2-2-2--3-3-3--0-0-0---0-0----
|3-3-3-3--1-1-1--0-0-0---x-x----


Текст, аккорды и табулатура для песни "Fade Away", исполняет "Seether".
Используемые в песне аккорды можно найти в разделе Как брать аккорды. Аккорды для шестиструнной гитары. Другие песни можно найти на нашем сайте, воспользовавшись алфавитным указателем вверху страницы.


 
Ошибка в тексте? Выделите ошибку и нажмите Ctrl+Enter