i was just hittin some notes and i came across this. its my first tab and i took
the other guys layout for this so i want to give him credit.......oh and i have
his solo in there b/c i really didnt feel like puttin effort into this. well let
me know what you think.



Intro/Verse
E|---------------------------------------------------------------------------|
B|---------------------------------------------------------------------------|
G|-----10-----10-----10-----10-----10---------10-----10-----10--9-7-9-7-9~~~-|
D|---8------8------8------8------8-----0----9------9------9------------------|
A|-9------9------9------9------9----------9------9------9--------------------|
E|---------------------------------------------------------------------------|

Chorus (figure out the rythem)
E|---------------------------0-----------------------------------------------|
B|-----------------------------0---------------------------------------------|
G|---------------------------------------------------------------------------|
D|--3------/7------/3-----2---------2----------------------------------------|
A|--3------/7------/3-----2---------2----------------------------------------|
E|--1------/5------/1-----0---------0----------------------------------------|

Solo coming out of the chorus
E|---------------------------------------------------------------------------|
B|---------------------------------------------------------------------------|
G|---------------------------------------------------------------------------|
D|---10~-9-10/7~---14-1217~/14~-Then Kinda-Slide down-----------------------|
A|---------------------------------------------------------------------------|
E|---------------------------------------------------------------------------|

Bridge(again figure out the rythem)
E|---------------------------------------------------------------------------|
B|---------------------------------------------------------------------------|
G|---7---x---5---x---5-------------------------------------------------------|
D|---7---x---5---x---5----5---/3---------------------------------------------|
A|---5---x---3---x---3----3---/1---------------------------------------------|
E|---5---x---3---x---3----3---/1---------------------------------------------|

End of bridge
E|---------------------------------------------------------------------------|
B|---------------------------------------------------------------------------|
G|---------------------------------------------------------------------------|
D|------------------xx---x---------------------------------------------------|
A|------------------xx---x---------------------------------------------------|
E|--1/5-51---------xx---x---------------------------------------------------|

| /  slide up
|   slide down
| h  hammer-on
| p  pull-off
| ~  vibrato
| +  harmonic
| x  Mute note
===========================================================================


Текст, аккорды и табулатура для песни "Driven Under", исполняет "Seether".
Используемые в песне аккорды можно найти в разделе Как брать аккорды. Аккорды для шестиструнной гитары. Другие песни можно найти на нашем сайте, воспользовавшись алфавитным указателем вверху страницы.


 
Ошибка в тексте? Выделите ошибку и нажмите Ctrl+Enter