-----------------------------------------------------------------------
			     Driven Under--Seether
-----------------------------------------------------------------------
Tabbed by: Matt Culpepper
Email: [email protected]


Tuning: E,A,D,G,B,e


Intro.     Use some kind of chorus effect……figure out the times played.
e|---------------------------------------------------------------------
B|---------------------------------------------------------------------
G|---------------------------------------------------------------------
D|---9---9---9---9---9----9---9---9-9--7--9--7--9--7-------------------
A|--7---7---7---7---7----7---7---7-------------------------------------
E –8---8---8---8---8----7—--7---7-------7-----7-----7------------------

Verse      The verse is just about the same thing minus a few things.
e|---------------------------------------------------------------------
B|---------------------------------------------------------------------
G|---------------------------------------------------------------------
D|---9---9---9---9---9----9---9---9---9—--9----------------------repeat
A|--7---7---7---7---7----7---7---7---7---7-----------------------------
E|-8---8---8---8---8----7---7---7---7---7------------------------------

Verse # 2 (I think)    During 1 part play this…
e|---------------------------------------------------------------------
B|---------------------------------------------------------------------
G|---------------------------------------------------------------------
D|-x-x-9-----x-x-9-----------------------------------------play this 2x
A|-x-x-7-----x-x-7-----------------------------------------------------
E|-x-x-8-----x-x-7-----------------------------------------------------

Chorus
e|---------------------------------------------------------------------
B|---------------------------------------------------------------------
G|---------------------------------------------------------------------
D|-x-x-x-x---3---7---3---2---------------------------------------------
A|-x-x-x-x---3---7---3---2---------------------------------------------
E|-x-x-x-x---1---5---1---0---------------------------------------------

Bridge
e|---------------------------------------------------------------------
B|---------------------------------------------------------------------
G|-7-7-7--10-10-10---5-5-5---------------------------------------------
D|-7-7-7--10-10-10---5-5-5---5-5-5---3-3-------------------------------
A|-5-5-5---8--8--8---3-3-3---5-5-5---3-3-------------------------------
E|-5-5-5---8--8--8---3-3-3---3-3-3---1-1-------------------------------

Pre-Chorus
e|---------------------------------------------------------------------
B|---------------------------------------------------------------------
G|---------------------------------------------------------------------
D|---------------------------------------------------------------------
A|---------------------------------------------------------------------
E|-1---5---1---0------------volume drop--------------------------------
Outro.
e|---------------------------------------------------------------------
B|---------------------------------------------------------------------
G|---------------------------------------------------------------------
D|-3--7--3--2----------------------------------------------------------
A|-3--7--3--2----------------------------------------------------------
E|-1--5--1--0----------------------------------------------------------

Well that’s about it except for the little creepy guitar part. It sounds really
close. . .at least 98% right. I hope it helps. E-mail me with comments or
anything else. ROCK ON!!!


| /  slide up
|   slide down
| h  hammer-on
| p  pull-off
| ~  vibrato
| +  harmonic
| x  Mute note


Текст, аккорды и табулатура для песни "Driven Under", исполняет "Seether".
Используемые в песне аккорды можно найти в разделе Как брать аккорды. Аккорды для шестиструнной гитары. Другие песни можно найти на нашем сайте, воспользовавшись алфавитным указателем вверху страницы.


 
Ошибка в тексте? Выделите ошибку и нажмите Ctrl+Enter