-------------------------------------------------------------------------------
			     Seether – Driven Under
-------------------------------------------------------------------------------
Tabbed by:Jeremy Kowalczyk
Email: [email protected]

Tuning:EADGBE
Im pretty sure on this tab so ya………

Intro/Verse
E|---------------------------------------------------------------------------|
B|---------------------------------------------------------------------------|
G|---------------------------------------------------------------------------|
D|------14----14----14-----14----14--------14----14----14-12-14-12-14--------|
A|----12-----12---12-----12----12--------12----12----12----------------------|
E|--13-----13---13-----13----13-----13-12----12----12------------------------|

Chorus (figure out the rythem)
E|---------------------------------------------------------------------------|
B|--------------0------------------------------------------------------------|
G|--------------0—Bend the neck-if u want------------------------------------|
D|--3---7--3--2-2------------------------------------------------------------|
A|--3---7--3--2-2------------------------------------------------------------|
E|--1---5--1--0-0------------------------------------------------------------|

Solo coming out of the chorus
E|---------------------------------------------------------------------------|
B|---------------------------------------------------------------------------|
G|---------------------------------------------------------------------------|
D|---10~-9-10/7~---14-1217~/14~-Then Kinda-Slide down-----------------------|
A|---------------------------------------------------------------------------|
E|---------------------------------------------------------------------------|

Bridge(im kinda sure on this)
E|---------------------------------------------------------------------------|
B|---------------------------------------------------------------------------|
G|---------------------------------------------------------------------------|
D|---7--5--5---5--4----------------------------------------------------------|
A|---5--3--3---3--2----------------------------------------------------------|
E|---------3---3--2----------------------------------------------------------|

End of bridge
E|---------------------------------------------------------------------------|
B|---------------------------------------------------------------------------|
G|---------------------------------------------------------------------------|
D|---------------------------------------------------------------------------|
A|---------------------------------------------------------------------------|
E|--1/5-51------------------------------------------------------------------|

| /  slide up
|   slide down
| h  hammer-on
| p  pull-off
| ~  vibrato
| +  harmonic
| x  Mute note
===========================================================================


Текст, аккорды и табулатура для песни "Driven Under", исполняет "Seether".
Используемые в песне аккорды можно найти в разделе Как брать аккорды. Аккорды для шестиструнной гитары. Другие песни можно найти на нашем сайте, воспользовавшись алфавитным указателем вверху страницы.


 
Ошибка в тексте? Выделите ошибку и нажмите Ctrl+Enter