(0:00 - 0:09)Intro 
|--------------------------------| 
|--------------------------------| 
|--------------------------------|Repeat 2 
|----0-------0-------0-----------| 
|--1---1---0---0---1---1---------| 
|3-------1-------3-------1---1-2-| 

(0:09 - 0:28)Verse 1 
|--------------------------------| 
|--------------------------------| 
|--------------------------------|Repeat 4 
|----0-------0-------0-------0---| 
|--1---1---0---0---1---1---0---0-| 
|3-------1-------3-------1-------| 

(0:28 - 0:37)Chorus 1 
|--------------------------------| 
|--------------------------------| 
|----0-------0-------0-------0---|Repeat 2 
|--1---1---0---0---1---1---0---0-| 
|3-------1-------3-------1-------| 
|--------------------------------| 

(0:38 - 0:47)Fill 1 
|--------------------------------| 
|--------------------------------| 
|--------------------------------|Repeat 2 
|----0-------0-------0-----------| 
|--1---1---0---0---1---1---------| 
|3-------1-------3-------1---1-2-| 

(0:47 - 1:05)Verse 2 
|--------------------------------| 
|--------------------------------| 
|--------------------------------|Repeat 4 
|----0-------0-------0-------0---| 
|--1---1---0---0---1---1---0---0-| 
|3-------1-------3-------1-------| 

(1:06 - 1:15)Chorus 2 
|--------------------------------| 
|--------------------------------| 
|----0-------0-------0-------0---|Repeat 2 
|--1---1---0---0---1---1---0---0-| 
|3-------1-------3-------1-------| 
|--------------------------------| 

(1:16 - 1:24)Fill 2 
|--------------------------------| 
|--------------------------------| 
|--------------------------------|Repeat 2 
|----0-------0-------0-----------| 
|--1---1---0---0---1---1---------| 
|3-------1-------3-------1---1-2-| 

(1:25 - 1:29)Fill 3 
|--------------------------------| 
|--------------------------------| 
|--------------------------------| 
|----0-------0-------0-------0---| 
|--1---1---0---0---1---1---0---0-| 
|3-------1-------3-------1-------| 

(1:30 - 1:34)Fill 4 
|--------------------------------| 
|--------------------------------| 
|--------------------------------| 
|----0-------0-------0-------0-0-| 
|--1---1---0---0---1---1---0-----| 
|3-------1-------3-------1-------| 

(1:35 - 1:43)Fill 5 
|--------------------------------| 
|--------------------------------| 
|----0-0-----0-0-----0-------0-0-|Repeat 2 
|--1-------0-------1---1---0-----| 
|3-------1-------3-------1-------| 
|--------------------------------| 

(1:44 - 1:53)Fill 6 
|--------------------------------| 
|--------------------------------| 
|--------------------------------|Repeat 2 
|----0-------0-------0-----------| 
|--1---1---0---0---1---1---------| 
|3-------1-------3-------1---1-2-| 

(1:54 - 2:11)Verse 3 
|--------------------------------| 
|--------------------------------| 
|--------------------------------|Repeat 4 
|----0-------0-------0-------0---| 
|--1---1---0---0---1---1---0---0-| 
|3-------1-------3-------1-------| 

(2:12 - 2:21)Chorus 3 
|--------------------------------| 
|--------------------------------| 
|----0-------0-------0-------0---|Repeat 2 
|--1---1---0---0---1---1---0---0-| 
|3-------1-------3-------1-------| 
|--------------------------------| 

(2:22 - 2:30)Pre-Chorus 1 
|--------------------------------| 
|--------------------------------| 
|--------------------------------|Repeat 2 
|----0-------0-------0-------0---| 
|--1---1---0---0---1---1---0---0-| 
|3-------1-------3-------1-------| 

(2:31 - 2:39)Chorus 4 
|--------------------------------| 
|--------------------------------| 
|----0-0-----0-0-----0-------0-0-|Repeat 2 
|--1-------0-------1---1---0-----| 
|3-------1-------3-------1-------| 
|--------------------------------| 

(2:40 - 2:59)Fill 7 
|--------------------------------| 
|--------------------------------| 
|--------------------------------|Repeat 4 
|----0-------0-------0-----------| 
|--1---1---0---0---1---1---------| 
|3-------1-------3-------1---1-2-| 

(3:00)END 
|-------| 
|-------| 
|-------| 
|-------| 
|1------| 
|3------|


Текст, аккорды и табулатура для песни "Dazed And Abused", исполняет "Seether".
Используемые в песне аккорды можно найти в разделе Как брать аккорды. Аккорды для шестиструнной гитары. Другие песни можно найти на нашем сайте, воспользовавшись алфавитным указателем вверху страницы.


 
Ошибка в тексте? Выделите ошибку и нажмите Ctrl+Enter