Artist:	Seether ft./Amy Lee from Evanescence
Song:	Broken
Album:  The Punisher
Tabber:	zman919191

Tuning: Drop Down Ѕ Step
Eb Ab Db Gb Bb eb

Intro/Verse
e-2h3-----3--3------3---------2h3-----3--3------3---------|
B-----0------3----3---3-----3-----0------3----3---3-----3-|
G-------0-------0---------0---------0-------0---------0---|
D-2---------------------0-----2---------------------0-----|
A------------3---------------------------3----------------|
E---------------------------------------------------------|

e-2h3-----3--3------3----------0h2-----3p2---0h2-------3p2-----|
B-----0------3----3---3-----3--------0-----3---------3-----3---|
G-------0-------0---------0------------------------2---------0-|
D-2---------------------0------0---0---------0---0-------------|
A------------3-------------------------------------------------|
E--------------------------------------------------------------|

Chorus w/o distortion
  C      Em         C      Em    D    C      Em         C      Em
e-000000-0--0000000-000000-0--0002222-000000-0--0000000-000000-0--------|
B-111111-0--0000000-111111-0--0003333-111111-0--0000000-111111-0--------|
G-000000-0--0000000-000000-0--0002222-000000-0--0000000-000000-0--------|
D-222222-2--2222222-222222-2--2220000-222222-2--2222222-222222-2--------|
A-333333-2--2222222-333333-2--2220000-333333-2--2222222-333333-2--------|
E-000000-0--0000000-000000-0--000xxxx-000000-0--0000000-000000-0--------|

Chorus w/ distortion
  C       Em  B A                       Last time
e-------------------------        e-----------------------|
B-------------------------        B-----------------------|
G-5-55XX------4-2--------- 3x     G-5-55XX----------------|
D-5-55XX--2---4-2---------        D-5-55XX--2-------------|
A-3-33XX--2---2-0---------        A-3-33XX--2-------------|
E---------0---------------        E---------0-------------|

Solo
e------------------------------0-----|
B----------------------------0---0---|
G------------------------------------|
D-------0-2--2/5-4-42-42-2---------|
A---0-2------------------------------|
E-0----------------------------------|

e------------------------------------------|
B------------------------------------------|
G----------------------------7-5-4-2-4-4-4-|
D-------0-2--2/5-4-42-42-7---------------|
A---0-2------------------------------------|
E-0----------------------------------------|

e----------------------------------0--|
B--------------------------------0----|
G-------------------------------------|
D-------0-2--2/5-4-42-42-7-5-2------|
A---0-2-------------------------------|
E-0-----------------------------------|

e------------------------------------------|
B------------------------------------------|
G----------------------------7-5-4-2-4-4-4-|
D-------0-2--2/5-4-42-42-7---------------|
A---0-2------------------------------------|
E-0----------------------------------------|

Chords          THESE ARE THE CHORDS
  Em      C       Em      C       Em      C       D
e-0--0000-0---000-0--0000-0---000-0--0000-0---000-2-|
B-0--0000-1---111-0--0000-1---111-0--0000-1---111-3-|
G-0--0000-0---000-0--0000-0---000-0--0000-0---000-2-|
D-2--2222-2---222-2--2222-2---222-2--2222-2---222-0-|
A-2--2222-3---333-2--2222-3---333-2--2222-3---333-0-|
E-0--0000-0---000-0--0000-0---000-0--0000-0---000-x-|

Fill                                                      Last time
e-15-14---15-14---15-14-15-14---17-15-14--14-        -15-14---15-14------|
B------15------15------------15---------17---        ------15------15-17-|
G-------------------------------------------- 3x     --------------------|
D--------------------------------------------        --------------------|
A--------------------------------------------        --------------------|
E--------------------------------------------        --------------------|


Outro                                                             End
e-12-7----3--12-7--14-10-5--12-7--12-7----3--12-7--14-10-5--12-7---0-|
B-------3-------------------------------3--------------------------0-|
G------------------------------------------------------------------0-|
D------------------------------------------------------------------2-|
A------------------------------------------------------------------2-|
E------------------------------------------------------------------0-|

Intro/Verse                3x   one guitar
Chorus w/o distortion      1x   one guitar
Intro/Verse                3x   one guitar
Chorus w/and w/o dis.      1x   two guitars
Solo w/ chords and intro   1x   three guitars
Chords                     1x   one guitar
Chorus w/and w/o dis.      4x   three guitars(During the 3rd time play fill)
Outro and Chords           1x   two guitars

Ok, I updated this tab, now it is perfect.  Let me know what you think.

-Nick Z.
[email protected]


Текст, аккорды и табулатура для песни "Broken", исполняет "Seether".
Используемые в песне аккорды можно найти в разделе Как брать аккорды. Аккорды для шестиструнной гитары. Другие песни можно найти на нашем сайте, воспользовавшись алфавитным указателем вверху страницы.


 
Ошибка в тексте? Выделите ошибку и нажмите Ctrl+Enter