Hey whats up this is my first tab, so if there are mistakes let me know.  You can figure out
that rhythm, its easy.  And its in standard tunnning.

Intro/verse (10x)

E-------------------------
B-------------------------
G-----7--------7-7h8p7----
D--5--7--7--8-------------
A--5--5--7--8-------------
E--3-----5--6-------------

Chorus (2x)

E-----------------------------------------
B-----------------------------------------
G-9--------5--9---------------------------
D-9--9--7--5--9--9--7--10--x-x-x-x--------
A-7--9--7--3--7--9--7--10--x-x-x-x--------
E----7--5--------7--5--8---x-x-x-x--------

Verse (8x, but on the 8th time dont play g----7-7h8p7)

Bridge (6x)

E--------------
B--------------
G--------5-----
D-10--9--5-----
A-10--9--3-----
E-8---7--------

Solo (Very easy but cool, u can bar the two strings on the 10th fret with your finger,
it makes it easier)

E--10----10----10----12----13----12----10----10----10----12----13---
B-----10----10----10---10----10----10----10----10----10----10----10-
G-------------------------------------------------------------------
D-------------------------------------------------------------------
A-------------------------------------------------------------------
E-------------------------------------------------------------------

E--12----10----10----10----12----13----12----10----10----10----12---
B----10----10----10----10----10----10----10----10----10----10----10-
G-------------------------------------------------------------------
D-------------------------------------------------------------------
A-------------------------------------------------------------------
E-------------------------------------------------------------------

E--13----12--------
B----10----10------
G-------------7/9--
D------------------
A------------------
E------------------

Chorus 1x

Bridge (Start w/ this, then go into the regular bridge from before for 8x)
G-----5--
D--9--5--
A--9--3--
E--7-----

Then end the song with...

D--10--
A--10--
E--8---

Thats it, let me know how it is.


Текст, аккорды и табулатура для песни "69 Tea", исполняет "Seether".
Используемые в песне аккорды можно найти в разделе Как брать аккорды. Аккорды для шестиструнной гитары. Другие песни можно найти на нашем сайте, воспользовавшись алфавитным указателем вверху страницы.


 
Ошибка в тексте? Выделите ошибку и нажмите Ctrl+Enter