Artist: Seether
    Title: 69 Tea
Tabbed By: FiendinItUp (Chris)
   Tuning: EADGBe (Standard)

Key:

   h - hammer on 
   p - pull off 
   b - bend string up
   r - release bend
   / - slide up
    - slide down
   ~ - vibrato
   t - tap (with strumming hand)
   x - muted, struck string
   # - Palm Mute

Intro: 2x (Slightly Distorted)

E--------------------------------------------------
B--------------------------------------------------
G---------------7-7-7--------------------7h8-7-----
D-----5-5--x-x--7-7-7--x-x--7-7--x-x--8------------
A-----5-5--x-x--5-5-5--x-x--7-7--x-x--8------------
E-----3-3--x-x---------x-x--5-5--x-x--6------------

Verse: 8x (Slightly Distorted)

E--------------------------------------------------
B--------------------------------------------------
G---------------7-7-7--------------------7h8-7-----
D-----5-5--x-x--7-7-7--x-x--7-7--x-x--8------------
A-----5-5--x-x--5-5-5--x-x--7-7--x-x--8------------
E-----3-3--x-x---------x-x--5-5--x-x--6------------

Chorus: 2x (Heavily Distorted)

E-------------------------------------------------------
B-------------------------------------------------------
G----------9-9------------------------------------------
D-----x-x--9-9--x-x--9-9-9--x-x--7-7--x-x--10-10-10-----
A-----x-x--7-7--x-x--9-9-9--x-x--7-7--x-x--10-10-10-----
E-----x-x-------x-x--7-7-7--x-x--5-5--x-x---8--8--8-----

E---------------------------------------------------------------
B---------------------------------------------------------------
G----------9-9--------------------------------------------------
D-----x-x--9-9--x-x--9-9-9--x-x--7-7--x-x--10-10-10--x-x-xx-----
A-----x-x--7-7--x-x--9-9-9--x-x--7-7--x-x--10-10-10--x-x-xx-----
E-----x-x-------x-x--7-7-7--x-x--5-5--x-x---8--8--8--x-x-xx-----
                                                  PM # # ##

Then Play Verse 8x, Then Chorus 2x.


Then Bridge: 6x (Strum, Distorted)

E----------------------------------------
B----------------------------------------
G-----5-5-5-----------4-4-4--------------
D-----5-5-5--6--6--6--4-4-4--3--3--3-----
A-----3-3-3--6--6--6--2-2-2--3--3--3-----
E------------4--4--4---------1--1--1-----

Solo Thing: Played Behind Heavily Distorted Verse (without Hammer-on)

E-----10----10----10----12----13----12----10----10----10----12----13----12--------
B--------10----10----10----10----10----10----10----10----10----10----10----10-----
G---------------------------------------------------------------------------------
D---------------------------------------------------------------------------------
A---------------------------------------------------------------------------------
E---------------------------------------------------------------------------------

E-----10----10----10----12----13----12----10----10----10----12----13----12--------
B--------10----10----10----10----10----10----10----10----10----10----10----10-----
G---------------------------------------------------------------------------------
D---------------------------------------------------------------------------------
A---------------------------------------------------------------------------------
E---------------------------------------------------------------------------------

E-------------
B-------------
G-----7/9-----
D-------------     Let Ring...
A-------------
E-------------


Pause (Drum n' Bass)


E--------------------
B--------------------
G--------------------
D-----10-x-x-xx-----
A-----10-x-x-xx-----
E-----8--x-x-xx-----
       PM # # ##

Then Play Chorus 2x


Then Play: 1x

E------------------
B------------------
G-----4-4-4--------
D-----4-4-4--3-----
A-----2-2-2--3-----
E------------1-----


Then Play Normal Bridge 7x


End With:

E-----------
B-----------
G-----5-----     Let Ring...
D-----5-----
A-----3-----
E-----------

Email Me with comments:   [email protected]

No spam please...Just genuine comments.


Текст, аккорды и табулатура для песни "69 Tea", исполняет "Seether".
Используемые в песне аккорды можно найти в разделе Как брать аккорды. Аккорды для шестиструнной гитары. Другие песни можно найти на нашем сайте, воспользовавшись алфавитным указателем вверху страницы.


 
Ошибка в тексте? Выделите ошибку и нажмите Ctrl+Enter