Kissed by a Rose  - Seal
~~~~~~~~~~~~~~~~~
Transcribed by Kevin
Standard tuning, capo 4th fret.

3/4 time.


INTRO:
            Cmaj7          D              E              E
|---0-2--||-3-----5-3----|-2---0--------|-0-------0----|-0-------0-2--|
|--------||-----0-----0--|---------3----|-------0---3--|-------0------|
|--------||---0----------|---2---2---2--|-----1--------|-----1--------|
|--------||--------------|-0------------|---2----------|---2----------|
|--------||-3------------|--------------|--------------|--------------|
|--------||--------------|--------------|-0------------|-0------------|

  Cmaj7          D              E              E
|-3-----5-3----|-2-------2----|-0-------0----|-0----------||
|-----0-----0--|-----3--------|-------0---3--|-0----------||
|---0----------|---2---2---2--|-----1--------|-1----------||
|--------------|-0------------|---2----------|-2----------||
|-3------------|--------------|--------------|-2----------||
|--------------|--------------|-0------------|-0----------||


VERSE 1:
E     E                    Cmaj7     D           E
There used to be a graying time ...
E     E        Cmaj7        D            E
You became the light on ...
E      E       Cmaj7        D                  E
Love remains a drug gets me ...
        E                 Em       Cmay7         D
Did you know that when it snows ...
        Cmaj7          D            E      E
And the light ...


CHORUS:
  E                      Cmaj7       D           E
Baby, I compare you to a kiss ...
    E                     Cmaj7       D        E
The more I get of you the ...
E             C          D        C              D            E      E
Now that your rose is in bloom, a light ....


SOLO:
            Cmaj7          D              E              E
|---0-2--||-3-----5-3----|-2---0--------|-0-------0----|-0-------0-2--|
|--------||-----0-----0--|---------3----|-------0---3--|-------0------|
|--------||---0----------|---2---2---2--|-----1--------|-----1--------|
|--------||--------------|-0------------|---2----------|---2----------|
|--------||-3------------|--------------|--------------|--------------|
|--------||--------------|--------------|-0------------|-0------------|

  Cmaj7          D              E              E
|-3-----5-3----|-2-------2----|-0-------0----|-0----------||
|-----0-----0--|-----3--------|-------0---3--|-0----------||
|---0----------|---2---2---2--|-----1--------|-1----------||
|--------------|-0------------|---2----------|-2----------||
|-3------------|--------------|--------------|-2----------||
|--------------|--------------|-0------------|-0----------||


VERSE 2:
There is so much a man can tell you, ...


CHORUS
Baby, I compare you to a kiss from a ...


SOLO:
            Cmaj7          D              E              E
|---0-2--||-3-----5-3----|-2---0--------|-0-------0----|-0-------0-2--|
|--------||-----0-----0--|---------3----|-------0---3--|-------0------|
|--------||---0----------|---2---2---2--|-----1--------|-----1--------|
|--------||--------------|-0------------|---2----------|---2----------|
|--------||-3------------|--------------|--------------|--------------|
|--------||--------------|--------------|-0------------|-0------------|

  Cmaj7          D              Cmaj7          D
|-3-----5-3----|-2---0--------|-3-----5-3----|-2-------2----||
|-----0-----0--|---------3----|-----0-----0--|-----3--------||
|---0----------|---2---2---2--|---0----------|---2---2---2--||
|--------------|-0------------|--------------|-0------------||
|-3------------|--------------|-3------------|--------------||
|--------------|--------------|--------------|--------------||


INTERLUDE:
D    D    Am          G           D
I've been kissed by a ...
 D        Am          G
I've been kissed ...
D    D    Am          G           D
I've been kissed by a ...
 D        Am          G           E
I've been kissed by a ...


VERSE 3:
There is so much a man can tell you, ....


CHORUS
Baby, I compare you to a kiss from ....


SOLO:
            Cmaj7          D              E              E
|---0-2--||-3-----5-3----|-2---0--------|-0-------0----|-0-------0-2--|
|--------||-----0-----0--|---------3----|-------0---3--|-------0------|
|--------||---0----------|---2---2---2--|-----1--------|-----1--------|
|--------||--------------|-0------------|---2----------|---2----------|
|--------||-3------------|--------------|--------------|--------------|
|--------||--------------|--------------|-0------------|-0------------|

  Cmaj7          D              E              E
|-3-----5-3----|-2-------2----|-0-------0----|-0----------||
|-----0-----0--|-----3--------|-------0---3--|-0----------||
|---0----------|---2---2---2--|-----1--------|-1----------||
|--------------|-0------------|---2----------|-2----------||
|-3------------|--------------|--------------|-2----------||
|--------------|--------------|-0------------|-0----------||


Текст, аккорды и табулатура для песни "Kiss From A Rose", исполняет "Seal".
Используемые в песне аккорды можно найти в разделе Как брать аккорды. Аккорды для шестиструнной гитары. Другие песни можно найти на нашем сайте, воспользовавшись алфавитным указателем вверху страницы.


 
Ошибка в тексте? Выделите ошибку и нажмите Ctrl+Enter