this is my first tab so dont get mad at me if they are wrong. thank you. have a nice day.

Pretty Girls Dont Talk To Me solo
Screeching Weasel

Guitar 1 (repeat 1x)
-| ---------------------------------------------------------------------------------------|
-| ---------------------------------------------------------------------------------------|
-| ---------------------------------------------------------------------------------------|
-| -2--3--2-2-3---------2--3--2--5-3-2-0--2-3---2--3--2-2-3---------2--3--2--5-3-2-0--2-3-|
-| --------------3---3-3-----------------------------------------3---3-3------------------|
-| ---------------------------------------------------------------------------------------|

Guitar 2 (come in on 2x)
-| ---------------------------------------------------------------------------------------|
-| -5--6--5-5-6---------5--6--5--8-6-5-3--5-6---5--6--5-5-6---------5--6--5--8-6-5-3--5-6-|
-| --------------5---5-5-----------------------------------------5---5-5------------------|
-| ---------------------------------------------------------------------------------------|
-| ---------------------------------------------------------------------------------------|
-| ---------------------------------------------------------------------------------------|

if you dont know the rhythm, then you might try listening to the song.

tabbed 10-2-02 by Mikey    (if you have any questions, email me at [email protected])


Текст, аккорды и табулатура для песни "Pretty Girls Dont Talk To Me", исполняет "Screeching Weasel".
Используемые в песне аккорды можно найти в разделе Как брать аккорды. Аккорды для шестиструнной гитары. Другие песни можно найти на нашем сайте, воспользовавшись алфавитным указателем вверху страницы.


 
Ошибка в тексте? Выделите ошибку и нажмите Ctrl+Enter