Screeching Weasel - A New Tomorrow
Submitted By: Craig
EMail: [email protected]/VERSE (PLAYED 6 TIMES TOTAL)
     Pm       Pm
E|--0—0—3—2-
B|--0—1—0—3-
G|--1—2—0—2-
D|--2—3—0—0-
A|--2—0—2------
E|--0--------3-------

CHORUS
E|--0—3—2—0—0—3—2—0--
B|--0—0—3—1—0—0—3—1--
G|--1—0—2—0—1—0—2—0--
D|--2—0—0—2—2—0—0—2--
A|--2—2-------3---2----2------3--
E|--0—3------------0----3---------

2ND VERSE (REPEAT 4 TIMES)
     Pm       Pm
E|--0—0—3—2--
B|--0—1—0—3--
G|--1—0—0—2--
D|--2—2—0—0--
A|--2—3—2------
E|--0--------3-----

GHORUS
E|--0—3—2—0—0—3—2—0--
B|--0—0—3—1—0—0—3—1--
G|--1—0—2—0—1—0—2—0--
D|--2—0—0—2—2—0—0—2--
A|--2—2-------3---2----2------3--
E|--0—3------------0----3---------

REPEAT UNTIL END W/ LEAD RIFFS
     Pm       Pm
E|--0—0—3—2--
B|--0—1—0—3--
G|--1—0—0—2--
D|--2—2—0—0--
A|--2—3—2------
E|--0--------3-----

LEAD RIFF A (PLAYED 4 TIMES TOTAL)
E|--0---3-5-3--2-----2------3-5-3--2-----2-
B|----------------3-----0-------------3--------
G|---------------------------------------------
D|---------------------------------------------
A|---------------------------------------------
E|---------------------------------------------

LEAD RIFF B (PLAY UNTIL SONG FADES OUT)
E|--7-7-7-7-7-7-7-7-5---5---------7-8-7-5---5---
B|--------------------8----8-8--8---------8-----------
G|------------------------------------------------------
D|------------------------------------------------------
A|-----------------------------------------------------
E|-----------------------------------------------------


Текст, аккорды и табулатура для песни "A New Tomorrow", исполняет "Screeching Weasel".
Используемые в песне аккорды можно найти в разделе Как брать аккорды. Аккорды для шестиструнной гитары. Другие песни можно найти на нашем сайте, воспользовавшись алфавитным указателем вверху страницы.


 
Ошибка в тексте? Выделите ошибку и нажмите Ctrl+Enter