E-------------------------12~-10--8------------------------
B-----10-13-13~--12--10--------------12--10---10~~~--------
G-9-----------------------------------------9--------------
D----------------------------------------------------------
A----------------------------------------------------------
E----------------------------------------------------------

E----------------------------------------------------------
B---------5--8---6---5-------------------------------------
G-------5---------------7-5-7-5----------------------------
D---7----------------------------9--7--5~~~~~~-------------
A----------------------------------------------------------
E----------------------------------------------------------



Текст, аккорды и табулатура для песни "You And I", исполняет "Scorpions".
Используемые в песне аккорды можно найти в разделе Как брать аккорды. Аккорды для шестиструнной гитары. Другие песни можно найти на нашем сайте, воспользовавшись алфавитным указателем вверху страницы.


 
Ошибка в тексте? Выделите ошибку и нажмите Ctrl+Enter