Subject: WOMAN    (face the heat 1993)
 Artist:Scorpions
 
 This tab is sent by John-Paul Jalwan (Lebanon)

 e-mail me at these addresses : [email protected]
                                [email protected]
  
 visit my home page : www.geocities.com/SunsetStrip/Frontrow/1565/


                S    C    O    R    P    I    O    N    S
                                  Woman

 b=bend
 r=release
 v=vibration
 br=bend+release 
   
   Intro:

  |-----------------------------------12b-12v------|-------------|
  |--------7-8-10--10br--10b-----10/---------------|-------------|
  |------9-----------------------------------------|-------------|
  |----9-------------------------------------------|-------------|
  |--7---------------------------------------------|----3--2-----|
  |------------------------------------------------|-0--------3--|


  
  |------------------|--------------------------|12-----15b-17br-|
  |------------------|-----------------------12-|---15b----------|
  |--14br---14-12----|-12-14--------------12----|----------------|
  |---------------14-|-----------------14-------|----------------|
  |------------------|--------------------------|----------------|
  |------------------|--------------------------|----------------|



  |-17-15b---15v---------|----------------------|------------------|
  |---------------17-17v-|----------------------|------------------|
  |----------------------|-14br-12--12-14--12---|------------------|
  |----------------------|--------------------14|7-5-5-5-7-7-5---5-|
  |----------------------|----------------------|--------------7---|
  |----------------------|----------------------|------------------|


   Chorus:

  |-------------------------------|--------------------------------|
  |-------------------------------|--------------------------------|
  |-------------------------------|--------------------------------|
  |-------------------------------|--------------------------------|
  |-------------------------------|--------------------------------|  
  |-0-0-0--8-8-8--7-7-7--3-3-3----|-0-0-0--8-8-8--7-7-7--3-3-3-----|

   Woman                            You can change    my  world



  |-------------------------------|--------------------------------|
  |-------------------------------|------3-------3-----------------|
  |-------------------------------|--------0--------0--------------|
  |-------------------------------|-------------------------0------|
  |-------------------------------|---3--------2----------2--------|
  |-0-0-0--8-8-8--7-7-7--3-3-3----|---------------------3----------|

   Woman                           You  can Change     My World   

    
    Verses 1&2 :
  
  |---------------------------------------------|
  |---------------------------------------------|
  |---------------------------------------------|
  |---------------------------------------------|
  |---------------------------------------------|
  |-0--0--0----8--8--8----7--7--7----3--3--3----|
  1.I'm chained to the fears inside these walls
  2.I see shadows coming through the walls   

  

  |---------------------------------------------|
  |---------------------------------------------|
  |---------------------------------------------|
  |---------------------------------------------|
  |---------------------------------------------|
  |-0--0--0----8--8--8----7--7--7----3--3--3----|

   The silence talks loud about the things I recall 
   I hear voices but noone's talking at all


  |---------------------------------------------|
  |---------------------------------------------|
  |---------------------------------------------|
  |---------------------------------------------|
  |---------------------------------------------|
  |-0--0--0----8--8--8----7--7--7----3--3--3----|
        
   Through the bricks in the window, I scream at the world
   I can feel the madness crawling up my spine


  |---------------------------------------------|
  |---------------------------------------------|
  |---------------------------------------------|
  |---------------------------------------------|
  |---------------------------------------------|
  |-0--0--0----8--8--8----7--7--7----3--3--3----|

   But when noone is listening it's hard to be heard
   Reaching out       To grab your mind

    

     Chorus:

  |-------------------------------|--------------------------------|
  |-------------------------------|--------------------------------|
  |-------------------------------|--------------------------------|
  |-------------------------------|--------------------------------|
  |-------------------------------|--------------------------------|  
  |-0-0-0--8-8-8--7-7-7--3-3-3----|-0-0-0--8-8-8--7-7-7--3-3-3-----|

   Woman                            You can change    my  world



  |-------------------------------|--------------------------------|
  |-------------------------------|------3-------3-----------------|
  |-------------------------------|--------0--------0--------------|
  |-------------------------------|-------------------------0------|
  |-------------------------------|---3--------2----------2--------|
  |-0-0-0--8-8-8--7-7-7--3-3-3----|---------------------3----------|

   Woman                           You  can Change     My World    



     Bridge:


     B5                          E5
    (Do you remember all those fears?)
     E5
    They won't leave me alone
     B5                          E5
    (Do you remember all these tears?)
     E5 
    I pretend to be strong
     B5                       E5
    (Do you remember all the pain?)
     E5
    I'm getting tired of the game 
     A5   
    I cannot live, I cannot die
     B5
    I wanna know who the hell am I ?      



     Guitar solo:


  |------------------------|---------------------------------|
  |--8b---10br-8--------8b-|-8br-5v--------------------------|
  |---------------9--------|---------------------------------|
  |------------------------|----------5--5--5--5--5-7---5----|
  |------------------------|---------------------------------|
  |------------------------|---------------------------------|


  |--------------------------------------|
  |--------------------------------------|
  |------------------9-11-12-14-14br--12-|
  |-5-7------------9---------------------|
  |------5-7--7--------------------------|
  |--------------------------------------|


  |-----------------------------------------------|
  |-------------------12-12/--15br-12----12-------|
  |-12-14-12-12-------12-12/----------14----12-14b|
  |-------------14-14-----------------------------|
  |-----------------------------------------------|
  |-----------------------------------------------|


  |-----------------------17b-17-15--17v-17-15--17b----15----|
  |----------------------------------------------------------|
  |-14r-12v-14-14v-12----------------------------------------|
  |----------------------------------------------------------|
  |----------------------------------------------------------|
  |----------------------------------------------------------|

                   1/2     1/2      1/4           1/2       1/2
  |--17-15b---17-15b---17-15b---17-15b--17--15-15-15b-15b--15b------|
  |-------------------------------------17----------------------17v-|
  |-----------------------------------------------------------------|
  |-----------------------------------------------------------------|
  |-----------------------------------------------------------------|
  |-----------------------------------------------------------------|


  |-------------------------------------------------------------------
  |-15br-12-----12----------------------------------------------------
  |---------14b----12-14br-14-12-14v-14br-12--------------------------
  |-----------------------------------------14-----------14-----------
  |-------------------------------------------12-14-13-12--14-13-12---
  |----------------------------------------------------------------15-

                            1/2
  |--0----------------------------------------------|
  |--0------0---------------------------------------|
  |--2br-0--2v--0-----------------------------------|
  |---------------2----5-7-7br--5--7--7v---5--------|
  |-----------------7/---------------------7--7-----|
  |-------------------------------------------------|



  Verse 3 :


  |---------------------------------------------|
  |---------------------------------------------|
  |---------------------------------------------|
  |---------------------------------------------|
  |---------------------------------------------|
  |-0--0--0----8--8--8----7--7--7----3--3--3----|

   You've never seen me but I know you so well


  |---------------------------------------------|
  |---------------------------------------------|
  |---------------------------------------------|
  |---------------------------------------------|
  |---------------------------------------------|
  |-0--0--0----8--8--8----7--7--7----3--3--3----|
 
   And before it kills me, I gotta break this spell

  |---------------------------------------------|
  |---------------------------------------------|
  |---------------------------------------------|
  |---------------------------------------------|
  |---------------------------------------------|
  |-0--0--0----8--8--8----7--7--7----3--3--3----|
   
   The Deeper we touch, the higher we'll go   

  |---------------------------------------------|
  |---------------------------------------------|
  |---------------------------------------------|
  |---------------------------------------------|
  |---------------------------------------------|
  |-0--0--0----8--8--8----7--7--7----3--3--3----| 

   The time has come, to hear my soul

   Chorus:

  |-------------------------------|--------------------------------|
  |-------------------------------|--------------------------------|
  |-------------------------------|--------------------------------|
  |-------------------------------|--------------------------------|
  |-------------------------------|--------------------------------|  
  |-0-0-0--8-8-8--7-7-7--3-3-3----|-0-0-0--8-8-8--7-7-7--3-3-3-----|

   Woman                            I'm gonna change    your  world
  

Enjoy it Sabine!


Текст, аккорды и табулатура для песни "Woman", исполняет "Scorpions".
Используемые в песне аккорды можно найти в разделе Как брать аккорды. Аккорды для шестиструнной гитары. Другие песни можно найти на нашем сайте, воспользовавшись алфавитным указателем вверху страницы.


 
Ошибка в тексте? Выделите ошибку и нажмите Ctrl+Enter