Intro & Verse:
   Dm              C             Dm              C
E----1---------5-------------------1---------5----
B------3-----------1-1-1-3---1-------3-----------1
G--------2---------0-0-0-0---0---------2---------0
D--0-------3-------2-2-2-2---2---0-------3-------2
A------------------3-3-3-3---3-------------------3
E-------------------------------------------------

Verse:
Welcome to a trip
Into my hurt feelings
To the center of my soul
You better bring a light
To find the house of meanings
The labyrinth of yes or no

Bridge:
     Hm  D
For you life is just like chess
   F
If you don´t make the move
        G
You´ll lose the game like this

Chorus:
    Am   C         F             G
Cause you, you´re walking on the edge
Am         C        F              G
You, you choose the way of love and pain
Am C F                   G
You, don´t you see the bridge
               Am           C        F           G
I´ve built for you, it´s just one step to start again

Intro:
   Dm              C             Dm              C
E----1---------5-------------------1---------5----
B------3-----------1-1-1-3---1-------3-----------1
G--------2---------0-0-0-0---0---------2---------0
D--0-------3-------2-2-2-2---2---0-------3-------2
A------------------3-3-3-3---3-------------------3
E-------------------------------------------------

Verse:
Welcome to a trip
Into my emotions
To the language of my heart
You´re sailing on a river
That becomes an ocean
Wich you can only cross with love
For you, life is just like chess

Bridge:
     Hm  D
For you, life is just like chess
   F
If you don´t make the move
        G
You´ll lose the game like this.

Chorus:
    Am   C         F             G
Cause you, you´re walking on the edge
Am         C        F              G
You, you choose the way of love and pain
Am C F                   G
You, don´t you see the bridge
               Am           C        F            G
I´ve built for you, it´s just one step to start again

Solo:
E------------------------------------------------------------------------
B---------8-7---------------8-7-10-8---------8-7----------------8-7-10-13
G-----7-9---------7-----7-9--------------7-9---------7-----7--9----------
D---7---------7-5-----7----------------7---------7-5-----7---------------
A------------------------------------------------------------------------
E------------------------------------------------------------------------

Bridge:
     Hm  D
For you, life is just like chess
   F
If you don´t make the move
        G
You´ll lose the game like this.

Chorus:
    Am   C         F             G
Cause you, you´re walking on the edge
Am         C        F              G
You, you choose the way of love and pain
Am C F                   G
You, don´t you see the bridge
               Am           C        F            G
I´ve built for you, it´s just one step to start again

Riff:
Hm             D 
Walking on the edge
Hm             D 
Walking on the edge

Chorus:
    Am   C         F             G
Cause you, you´re walking on the edge
Am         C        F              G
You, you choose the way of love and pain
Am C F                   G
You, don´t you see the bridge
               Am           C        F            G
I´ve built for you, it´s just one step to start again

Riff:
Hm             D 
Walking on the edge
Hm             D 
Walking on the edge


Текст, аккорды и табулатура для песни "Walking On The Edge", исполняет "Scorpions".
Используемые в песне аккорды можно найти в разделе Как брать аккорды. Аккорды для шестиструнной гитары. Другие песни можно найти на нашем сайте, воспользовавшись алфавитным указателем вверху страницы.


 
Ошибка в тексте? Выделите ошибку и нажмите Ctrl+Enter