Stone in my shoe                         Schenker/Meine
Pure instinct
Scorpions


Intro
gtr1 distor
----------------------------------------------------------------------------
----------------------------------------------------------------------------
---6-6-----------------------------------6-6--------------------------------
---6-6-x-6-4-----------------------------6-6-x-6-4------------------(4)-----
---4-4-x-6-4-----------------------------4-4-x-6-4------------------(4)-----
-------x-4-2---------------------------------x-4-2------------------(2)-----
           let it ring                            ..........................

gtr 2
----------------------------------------------------------------------------
----------------------------------------------------------------------------
----6---6-6------6---6-6------6---6-6------6---6-6------6---6-6------6-6-6--
-4/6-6-6-6-6----6-6-6-6-6--4/6-6-6-6-6----6-6-6-6-6--4/6-6-6-6-6----6-6-6-6-
----------------------------------------------------------------------------
----------------------------------------------------------------------------

gtr 1
---------------------------------------------
---------------------------------------------
---6-6---------------x-6-6---------------x---
---6-6-x-6-4-4-x-4-6-x-6-6-x-6-4-4-x-4-6-x---
---4-4-x-6-4-4-x-4-6-x-4-4-x-6-4-4-x-4-6-x---
-------x-4-2-2-x-2-4-x-----x-4-2-2-x-2-4-x---
gtr2 
----------------------------------------------------------------------------
----------------------------------------------------------------------------
----6---6-6------6---6-6------6---6-6------6---6-6------6---6-6------6-6-6--
-4/6-6-6-6-6--4/6-6-6-6-6--4/6-6-6-6-6--4/6-6-6-6-6--4/6-6-6-6-6--4/6-6-6-6-
----------------------------------------------------------------------------
----------------------------------------------------------------------------


fill 1
-------9--x-8-6---6----8---9-x-8-6----
-----------------7-6--9-9-------------
-----/9---x-8-6-6---/8---/9--x-8-6----
--------------------------------------
--------------------------------------
--------------------------------------

gtr1
---------------------------------------
---------------------------------------
---3------------6---6x6x6x6x6x6--------
---3-----4------6---6x6x6x6x6x6--------
---1-----4------4---4x4x4x4x4x4--------
---------2-----------------------------
just like a...............
gtr2
---------------------------------------
---------------------------------------
---3------------6----------------------
---3-----4------6---------5-7----------
---1-----4------4---5-7-8--------------
---------2-----------------------------


gtr1
--------------------------------------------
--------------------------------------------
---3------------6---7/9/10/12/14/16/17/18---
---3-----4------6---------------------------
---1-----4------4---5/7/8-/10/12/14/15/16---
---------2----------------------------------
it's sayin'............
gtr2
--------------------------------------------
--------------------------------------------
---3------------6---------------------------
---3-----4------6---------5-7-9-5-----------
---1-----4------4---5-7-8--------7----5-----
---------2-------------------------4-5-7-5-4


Chorus
gtr 1
----------------------------------------------------------------
----------------------------------------------------------------
---6-------------------------------6----------------------------
---6----------6-x-6-6----3----4----6---------6-x-6-6---3---4----
---4----------6-x-6-6----3----4----4---------6-x-6-6---3---4----
--------------4-x-4-4----1----2--------------4-x-4-4---1---2----
gtr 2
----------------------------------------------------------------
----------------------------------------------------------------
---6-6-x-6-------------------------6-6-x-6----------------------
---6-6-x-6----6-6-x-6----3----4----6-6-x-6---6-6-x-6---3---4----
---4-4-x-4----6-6-x-6----3----4----4-4-x-6---6-6-x-6---3---4----
--------------4-4-x-4----1----2--------------4-4-x-4---1---2----


before solo w intro rhythm
--------------------------------------------------------
--------------------------------------------------------
--6--------------6-6-6-6-6-6-----6-------------6-6-6-6-6
--6----------6-6-6-6-6-6-6-6-----6---------6-6-6-6-6-6-6
--4------4-4-4-4-4-4-4-4-4-4-----4-----4-4-4-4-4-4-4-4-4
--------------------------------------------------------
p.m.     ...................           .................


--------------------
--------------------
-2p0----------------
----2p0-------------
-------3p0----------
----------2p0-------

Chorus out

The song is following the rhythn so i suppose that everybody knos how it goes so enjoy it

[email protected]    [email protected]


Текст, аккорды и табулатура для песни "Stone In My Shoe", исполняет "Scorpions".
Используемые в песне аккорды можно найти в разделе Как брать аккорды. Аккорды для шестиструнной гитары. Другие песни можно найти на нашем сайте, воспользовавшись алфавитным указателем вверху страницы.


 
Ошибка в тексте? Выделите ошибку и нажмите Ctrl+Enter