STEAMROCK FEVER                                        (SCHENKER/MEINE)
Taken by force
Scorpions

                                                              
        fig 1                                             fig2

e--------------------------------------------------------|-------|
B---4-4-4-4-4-4-4-4-4-4------5-5-5-5-5------5--4--5------|--4----|
G---4-4-4-4-4-4-4-4-4-4------5-5-5-5-5------5--4--5------|--4-X10|
D---4-4-4-4-4-4-4-4-4-4------5-5-5-5-5------5--4--5------|--4----|
A---2-2-2-2-2-2-2-2-2-2------3-3-3-3-3------3--2--3------|--2----|
E--------------------------------------------------------|-------|

         fig 3
e-------------------------------------------------
B---4-4-4-4-4-4-4-4-4-4------5-5-5-5-5-5-5-5-5-5--
G---4-4-4-4-4-4-4-4-4-4------5-5-5-5-5-5-5-5-5-5--
D---4-4-4-4-4-4-4-4-4-4------5-5-5-5-5-5-5-5-5-5--
A---2-2-2-2-2-2-2-2-2-2------3-3-3-3-3-3-3-3-3-3--
E-------------------------------------------------

         fig 4
e-------------------------------------------------------------------
B---4-4-4----5-5-5---4-4-4---5-5-5---4-4-4---5-5-5---4-4-4----5-5-5-
G---4-4-4----5-5-5---4-4-4---5-5-5---4-4-4---5-5-5---4-4-4----5-5-5-
D---4-4-4----5-5-5---4-4-4---5-5-5---4-4-4---5-5-5---4-4-4----5-5-5-
A---2-2-2----3-3-3---2-2-2---3-3-3---2-2-2---3-3-3---2-2-2----3-3-3-
E-------------------------------------------------------------------

         fig 5
e------------------------------------------------------------------------------
B------------------------------------------------------------------------------
G------------------------------------------------------------------------------
D------------------------------------------------------------------------------
A---555---777---10-10-10--------12-12-12--12/11/10/9/8/7/6/5/4/3/2/1/0---------
E333---555---888--------10-10-10-----------------------------------------------


Chorus
---------------------------------------------------------
---------------------------------------------------------
---------------------------------------------------------
---9-9-9-9-----------------------------------------------
---7-7-7-7-9-9-9-9--11-11-11-11----5-5--7-7--------------
-----------7-7-7-7--9--9--9--9----3-3--5-5---------------


Intro fig 1 x2

We'd like to introduce tonight
 The kings of a brand new style        fig 2 x3 w/fig4 at the end
 They're hungry to play        
 We'd like to introduce tonight        fig 2 x3 w/fig2 at the end
 The new heavy steamrock style
 They're ready to play

  fig 5

 All right, how do you feel tonight
 Get out to see them write             fig 2 x3 w/fig 4 at the end
 The name of their band
 (Steamrock band, steamrock band)
 Steam bright, work has a beat tonight
 Get out to see them fry               fig 2 x3 w/fig 2 at the end
 And they will begin
 Here they are

  fig 5

 Steamrock fever thrilling rock believers
 Steamrock fever in L.A.                       CHORUS
 Steamrock fever thrilling rock believers
 Steamrock fever in L.A.

 All right, how do you feel tonight
 Get out to see them write              fig 2 x3 w/fig 4 at the end
 The name of their band
 (Steamrock band, steamrock band)
 Steam bright, work has a beat tonight
 Get out to see them fry                fig 2 x3 w/fig 2 at the end
 And they will begin
 Here they are

 fig 5

 Steamrock fever thrilling rock believers
 Steamrock fever in L.A.                        CHORUS
 Steamrock fever thrilling rock believers
 Steamrock fever in L.A.



O.K. so maybe the fig 5 and the chorus are wrong but it will give you the idea

[email protected]
[email protected]
MIRSHA FROM MEXICO


Текст, аккорды и табулатура для песни "Steamrock Fever", исполняет "Scorpions".
Используемые в песне аккорды можно найти в разделе Как брать аккорды. Аккорды для шестиструнной гитары. Другие песни можно найти на нашем сайте, воспользовавшись алфавитным указателем вверху страницы.


 
Ошибка в тексте? Выделите ошибку и нажмите Ctrl+Enter