Artist: Scorpions
Song: Rock You Like A Hurricane
Tabbed by dmanrevived ([email protected])

Intro
G|---------------------
D|---------------------
A|---------------------
E|-0-0-0-0-0-0-0-0-0-0-
(with drums)

Guitar Solo 1
G|---------------------
D|-2-2-2---------------
A|---------------3-5-5-
E|-------3-3-5-5-------
x4

Verse 1
G|---------------------------------
D|-------2-2-2-2-2-------2-2-------
A|-3-3-3-----------3-3-3-----5-5-5-
E|---------------------------------

G|---------------------------------
D|-------2-2-2-2-2-----------------
A|-3-3-3-----------3-3-3-5-5-5-5-5-
E|---------------------------------
x4

Chorus 1
G|---------------------
D|-2-2-2---------------
A|---------------3-5-5-
E|-------3-3-5-5-------
x4

Verse 2
G|---------------------------------
D|-------2-2-2-2-2-------2-2-------
A|-3-3-3-----------3-3-3-----5-5-5-
E|---------------------------------

G|---------------------------------
D|-------2-2-2-2-2-----------------
A|-3-3-3-----------3-3-3-5-5-5-5-5-
E|---------------------------------
x8

Chorus 2
G|---------------------
D|-2-2-2---------------
A|---------------3-5-5-
E|-------3-3-5-5-------
x8

Guitar Solo 2
G|---------------------
D|-2-2-2---------------
A|---------------3-5-5-
E|-------3-3-5-5-------
x8

Bridge
-No bass-

Verse 3
G|---------------------------------
D|-------2-2-2-2-2-------2-2-------
A|-3-3-3-----------3-3-3-----5-5-5-
E|---------------------------------

G|---------------------------------
D|-------2-2-2-2-2-----------------
A|-3-3-3-----------3-3-3-5-5-5-5-5-
E|---------------------------------
x4

Chorus 3
G|---------------------
D|-2-2-2---------------
A|---------------3-5-5-
E|-------3-3-5-5-------
x8

G|-------
D|-2-2-2-
A|-------
E|-------


Текст, аккорды и табулатура для песни "Rock You Like A Hurricane", исполняет "Scorpions".
Используемые в песне аккорды можно найти в разделе Как брать аккорды. Аккорды для шестиструнной гитары. Другие песни можно найти на нашем сайте, воспользовавшись алфавитным указателем вверху страницы.


 
Ошибка в тексте? Выделите ошибку и нажмите Ctrl+Enter