He's a woman She's a man                        (Schenker/Meine/Rarebell)
Taken by force
Scorpions



Standard tuning

Intro  Distortion
-----------------------------------------------------
-----------------------------------------------------
--7-9----12-11--7-9---12-14--7-9---12--11--7-9--12-14
--7-9----12-11--7-9---12-14--7-9---12--11--7-9--12-14
--5-7----10-9---5-7---10-12--5-7---10--9---5-7--10-12
-----------------------------------------------------

Fig 1
--------------------------------------------------------------
--------------------------------------------------------------
--------------------------------------------------------------
--------------7----8----10---8-------------7-----8----10---8--
--------------7----8----10---8-------------7-----8----10---8--
-0-0-0-0-0-0-0--0-0--0-0--0-0--0-0-0-0-0-0---0-0--0-0---0-0---
p.m...........  ...  ...  ...  ...........   ...  ...   ...


------------------------------------------------------------------
------------------------------------------------------------------
------------------------------------------------------------------
--------------7----8----10---8-------------7-----8----10---12--11-
--------------7----8----10---8-------------7-----8----10---10--9--
-0-0-0-0-0-0-0--0-0--0-0--0-0--0-0-0-0-0-0---0-0--0-0-------------
p.m...........  ...  ...  ...  ...........   ...  ......



Play this in the verse and in the solo  Fig 2
-------------------------------------------------------------------
-------------------------------------------------------------------
--------------------------------------------------------------9-9-9
--------------------------------------------------------------7-7-7
------5h7---5h7---5h7----5h7----5h7----5h7----5h7---5h7---5h7------
--0-0----0-0---0-0----0-0----0-0----0-0----0-0---0-0---0-0----0-0-0



CHORUS
----------------------------------------------------------
----------------------------------------------------------
----------------------------------------------------------
----12---10-------------------------7------------------7--
----10---9--------------------------7------------------7--
--------------------0-0-0-0-0-0-0-0----0-0-0-0-0-0-0-0----
   Heee  is a woman

----------------------------------------------------------
----------------------------------------------------------
----------------------------------------------------------
----12---14--------------------------7------------------7--
----10---12--------------------------7------------------7--
--------------------0-0-0-0-0-0-0-0----0-0-0-0-0-0-0-0-----
   Sheee  is a man

fig 3
---------------------------------------------------------------------------------
---------------------------------------------------------------------------------
---------------------------------------------------------------------------------
----12---14-----------------------7----8----10----7----------------7----8--12--11
----10---12-----------------------7----8----10----7----------------7----8--10--9-
----------------0-0-0-0-0-0-0-0-0---0-0--0-0---0-0--0-0-0-0-0-0-0-0--0-0---------
   Sheee is ahhhh

INTRO

Fig 1

I saw it walkin' lonely down the street
 Cool like a cat, like crazy clean          fig 2
 I looked twice again, I can't believe
 Oh no no no
 It turned around right then
 And looked at me
 I said oh no, it really couldn't be
 It was a man, it was a woman, too

 He's a woman, she's a man                   Chorus x2
 He's a woman, she's a (woman)              

 Fig 1

 I think it really came from far away
 I'm feeling head uptight so I have to stay
 It takes my hand and says come on, let's  go  fig 2
 Let's go, let's go, let's go
 We're goin' home, it's nice and warm to say
 He starts to move, she starts to play
 I need a body, why not you

 He's a woman, she's a man                   Chorus x2
 He's a woman, she's a (woman)

 Intro

 Solo w/figfig 2

 He's a woman, she's a man                   Chorus
 He's a woman, she's a (woman)
 
 Fig 3

Here's everything i can do so....enjoy it

[email protected]  [email protected]


Текст, аккорды и табулатура для песни "Hes A Woman Shes A Man", исполняет "Scorpions".
Используемые в песне аккорды можно найти в разделе Как брать аккорды. Аккорды для шестиструнной гитары. Другие песни можно найти на нашем сайте, воспользовавшись алфавитным указателем вверху страницы.


 
Ошибка в тексте? Выделите ошибку и нажмите Ctrl+Enter