China White 
by Scorpions

off the album, Blackout

transcribed by Martin Wong
comments/additions to: [email protected]

intro (repeat several times)

--------------------------------------------------------
---9----9-9-9----/12------------------------------------
---9----9-9-9----/12------------------------------------
---9----9-9-9----/12------------------------------------
---7----7-7-7----/10------------------------------------
-0------------------------------------------------------

main riff
------------------------------------------------------------------
----9-9-9--------9-9-9----------9-9-9----------9-9-9----5---7-----
----9-9-9--------9-9-9----------9-9-9----------9-9-9----5---7-----
----9-9-9---5b---9-9-9---7b-----9-9-9---8b-----9-9-9----5---7-----
----7-7-7--------7-7-7----------7-7-7----------7-7-7----3---5-----
-0-------------0-------------0--------------0-------------------0-

right before solo
------------------------------------------------------
-5---7-------5---7------5-----------------------------
-5---7-------5---7------5-----------------------------
-5---7-------5---7------5-----------------------------
-3---5-------3---5------3-----------------------------
------------------------------------------------------

rhythm under solo
------------------------------------------------------
------------------------------------------------------
------------7------5---7------------------------------
-5p4--------5------5---7------------------------------
-----5b--7-----7---3---5------------------------------
------------------------------------------------------

it's up to you....
-----------------------------------------------------------
-----------------------------------------------------------
-4-----7--5--7--5--4----7--5--7--5--4----7--5--7--5--4-----
-4-----7--5--7--5--4----7--5--7--5--4----7--5--7--5--4-----
-2-----5--3--5--3--2----5--3--5--3--2----5--3--5--3--2-----
-----------------------------------------------------------

------------------------------------------------------
------------------------------------------------------
--7--5--7--5------7--5--7--5--------------------------
--7--5--7--5------7--5--7--5--------------------------
--5--3--5--3------5--3--5--3--------------------------
------------------------------------------------------


Текст, аккорды и табулатура для песни "China White", исполняет "Scorpions".
Используемые в песне аккорды можно найти в разделе Как брать аккорды. Аккорды для шестиструнной гитары. Другие песни можно найти на нашем сайте, воспользовавшись алфавитным указателем вверху страницы.


 
Ошибка в тексте? Выделите ошибку и нажмите Ctrl+Enter