School of Rock- MATH IS A WONDERFUL THING

Tuning: Standard (E A D G B E)
   C    D     G G G G G G   C C  D D   G G G G G G  C C C C C  C  C
E|------2-----3-3-3-3-3-3-|------2-2---3-3-3-3-3-3|------------------||
B|-1----3-----3-3-3-3-3-3-|-1-1--3-3---3-3-3-3-3-3|-1-1-1-1-1--1--1--||
G|-0----2-----0-0-0-0-0-0-|-0-0--2-2---0-0-0-0-0-0|-0-0-0-0-0--0--0--||
D|-2----------0-0-0-0-0-0-|-2-2--------0-0-0-0-0-0|-2-2-2-2-2--2--2--||
A|-3----------2-2-2-2-2-2-|-3-3--------2-2-2-2-2-2|-3-3-3-3-3--3--3--||
E|------------3-3-3-3-3-3-|------------3-3-3-3-3-3|------------------||
Math is a wonderful thing   math is a really...     so get off...
   D  D     G          G  C              C        C
E|-2--2-----3-------|--3---------------|---3--------------||
B|-3--3-----3-------|--3--1------------|-1-1------1-------||
G|-2--2-----0-------|--0--0------------|-0-0------0-------||
D|----------0-------|--0--2------------|-2-0------2-------||
A|----------2-------|--2--3------------|-3-2------3-------||
E|----------3-------|--3---------------|---3--------------||
  Math math  Math     3-4 is            6 times a billion is
   C C  D D  C C       D                      C
E|------2-2---------|--2---------------|------------------|----------------||
B|-1-1--3-3--1-1----|--3---------------|------1-----------|----------------||
G|-0-0--2-2--0-0----|--2---------------|------0-----------|----------------||
D|-2-2-------2-2----|------------------|------2-----------|----------------||
A|-3-3-------3-3----|------------------|------3-----------|----------------||
E|------------------|------------------|------------------|----------------||
  54 is a 45 more ...  marta            no its 8
           C C C C C  C C C C   C
E|------------------|------------------||
B|---------1-1-1-1-1|-1-1-1-1---1------||
G|---------0-0-0-0-0|-0-0-0-0---0------||
D|---------2-2-2-2-2|-2-2-2-2---2------||
A|---------3-3-3-3-3|-3-3-3-3---3------||
E|------------------|------------------||
and that's a magic #


Текст, аккорды и табулатура для песни "Math Is A Wonderful Thing", исполняет "School Of Rock".
Используемые в песне аккорды можно найти в разделе Как брать аккорды. Аккорды для шестиструнной гитары. Другие песни можно найти на нашем сайте, воспользовавшись алфавитным указателем вверху страницы.


 
Ошибка в тексте? Выделите ошибку и нажмите Ctrl+Enter