I found some problems with the other tab of this song.  They weren't big, but
the chords were off.  I wasn't sure about the solo, it could be wrong.  comments,
corrections, and hate mail go to: [email protected]

Saves the Day – The Way His Collar Falls

Leif and I are on a train to NY...
E--3----3----3----2-------3------------------------|----------------|
B--3----3----3----3-------3------------------------|----------------|
G--0----0----0----2-------0------------------------|------7-7-4-----|
D--2----2----0----0-------2------------------------|--4-5-----------|
A--3----2----2----0-------3------------------------|-5--------------|
E--x----0----3----x--(4x)-x-(2 triplets on C chord)|----------------|
					     (into next e minor)

His hair is sticking up a little in the front...
E--3----3----2----3---------------3----3----2----2-|
B--3----3----3----3---------------3----3----3----3-|
G--0----0----2----0---------------0----0----2----2-|
D--2----0----0----2---------------2----0----0----0-|
A--2----2----0----3---------------2----2----0----0-|
E--0----3----x----x-(short rest)--0----3----x----x-|

His glasses, the way he writes in purple pen...
E--3----3----3----2--|
B--3----3----3----3--|
G--0----0----0----2--|
D--2----2----0----0--|
A--3----2----2----0--|
E--x----0----3----x--|(4x)

I know he's next to me, I feel his sweater here...
E--3----2----3----3----3----2------33--------|
B--3----3----3----3----3----3------33--------|
G--0----2----0----0----0----2------44-5------|
D--2----0----2----0----2----0------55-5------|
A--3----0----2----2----3----0------55-3------|
E--x----x----0----3----x----x------33-3 (4x)-|

I think I'll write you....back on the train...
E--3----2----3----3--------2-----------|
B--3----3----3----3--------3-----------|
G--0----2----0----0--------2-----------|
D--2----0----2----0--------0-----------|
A--3----0----2----2--------0-----------|
E--x----x----0----3--------x(let ring)-|

SOLO:
B--------3--------3----------------------|
G----4--------4------------4-------------|
D-----------2---2---2--5--------4---4h54-|
A--3---3---3------------------5---5------|
E--------------------3---3---3-----------|


Текст, аккорды и табулатура для песни "The Way His Collar Falls", исполняет "Saves The Day".
Используемые в песне аккорды можно найти в разделе Как брать аккорды. Аккорды для шестиструнной гитары. Другие песни можно найти на нашем сайте, воспользовавшись алфавитным указателем вверху страницы.


 
Ошибка в тексте? Выделите ошибку и нажмите Ctrl+Enter