Artist:Saves The Day
Song:Rocks Tonic Juice Magic
Album:Through Being Cool
Tabbed By: Dean K. ([email protected])

Verse: (* = Palm Mute)
e|------------------------------------------------|
B|------------------------------------------------|
G|--------3-5--66666--5-3---------5-6--88888--6-5-|
D|-33333--3-5--66666--5-3--66666--5-6--88888--6-5-|
A|-33333--1-3--44444--3-1--66666--3-4--66666--4-3-|
E|-11111-------------------44444------------------|
    ****        ****        ****        ****

Riff: (~ = Let Ring)
e|---------------------------------|
B|-----6---------------6-----------|
G|--------8--6--8~--------8--6--8~-|
D|--3~--------------6~-------------|
A|--3---------------6--------------|
E|--1---------------4--------------|

Chorus:
e|-------------------------------------------------------------------|
B|-------------------------------------------------------------------|
G|----6-666666----------8-888888----------6-666666----------8-8-8-88-|
D|333-6-666666-6-666666-8-888888-3-333333-6-666666-6-666666-8-8-8-88-|
A|333-4-444444-6-666666-6-666666-3-333333-4-444444-6-666666-6-6-6-66-|
E|111----------4-444444----------1-111111----------4-444444----------|

Outro:
e|-----------------------------------------------------------------|
B|-----------------------------------------------------------------|
G|-----------------8-8-8-8-8-8-8-8--6-6-6-6-6-6-6-6---------8-8-8-8|
D|6-6-6-6-6-6-6-6--8-8-8-8-8-8-8-8--6-6-6-6-6-6-6-6-3-3-3-3-8-8-8-8|
A|6-6-6-6-6-6-6-6--6-6-6-6-6-6-6-6--4-4-4-4-4-4-4-4-3-3-3-3-6-6-6-6|
E|4-4-4-4-4-4-4-4-----------------------------------1-1-1-1--------|

Ending:
e|------------|
B|------------|
G|-------5-6~-|
D|-3--3--5-6~-|
A|-3--3--3-4~-|
E|-1--1-------|

Song Order:

Verse: 4x
Riff: x1
Verse: 4x
Chorus: x2
Verse: x4
Chorus: x2
Outro: x4
Ending: x1


Текст, аккорды и табулатура для песни "Rocks Tonic Juice Magic", исполняет "Saves The Day".
Используемые в песне аккорды можно найти в разделе Как брать аккорды. Аккорды для шестиструнной гитары. Другие песни можно найти на нашем сайте, воспользовавшись алфавитным указателем вверху страницы.


 
Ошибка в тексте? Выделите ошибку и нажмите Ctrl+Enter