HOLLY HOX, FORGET ME NOT - Saves The Day

By:Emo Marco   [email protected]

[email protected]------------|
B|-0-------------------------------------------------------------------------|
G|-0-----------4-4-4-4-6-6-6-9-9-9-------------------------------------------|
D|-0-----------4-4-4-4-6-6-6-9-9-9-------------------------------------------|
A|-0-----------2-2-2-2-4-4-4-7-7-7-------------------------------------------|
E|-0-------------------------------------------------------------------------|

     let ring
e|---------------------------------------------------------------------------|
B|---------------------------------------------------------------------------|
G|--11-11-11-11-13-11-9-9-9-9-11-9-8-8-8-8-9-8-4-4-4-4-----------------------|
D|---------------------------------------------------------------------------|
A|--9--9--9--9--11-9--7-7-7-7-9--7-6-6-6-6-7-6-2-2-2-2-----------------------|
E|---------------------------------------------------------------------------|

     2nd Guitar
e|---------------------------------------------------------------------------|
B|---------------------------------------------------------------------------|
G|--4-4-4-4-4-4-6-6-6-6-6-6--------------------------------------------------|
D|--4-4-4-4-4-4-6-6-6-6-6-6-2-2-2-2-2-2--------------------------------------|
A|--2-2-2-2-2-2-4-4-4-4-4-4-2-2-2-2-2-2--------------------------------------|
E|--------------------------0-0-0-0-0-0--------------------------------------|

   verse x 4
e|---------------------------------------------------------------------------|
B|---------------------------------------------------------------------------|
G|-------------------------------------------------8-9-11-9------------------|
D|-----------------2-2-2-2-2-2-2-2-4-4-4-4-4-4-4-4---------------------------|
A|-6-6-6-6-6-6-6-6-2-2-2-2-2-2-2-2-4-4-4-4-4-4-4-4-6-7-9--7------------------|
E|-4-4-4-4-4-4-4-4-0-0-0-0-0-0-0-0-2-2-2-2-2-2-2-2---------------------------|
   p. m.------------------------------------------

e|---------------------------------------------------------------------------|
B|---------------------------------------------------------------------------|
G|---------------------------------------------------------------------------|
D|---------------------------------------------------------------------------|
A|6-6-6-6-6-6-6-6-2-2-2-2-2-2-2-2-4-4-4-4-4-4-4-4-2-2-2-2-2-2-2-2------------|
E|4-4-4-4-4-4-4-4-0-0-0-0-0-0-0-0-2-2-2-2-2-2-2-2-0-0-0-0-0-0-0-0------------|
  p.m.-----------------------------------------------------------

e|---------------------------------------------------------------------------|
B|---------------------------------------------------------------------------|
G|---------------------------------------------------------------------------|
D|-4-4---6-6-6-2-2-2-2---2-2-2-2-2-2---2-2-2-2-2-----------------------------|
A|-2-2-4-4-4-4-2-2-2-2---2-2-2-2-2-2---2-2-2-2-2-----------------------------|
E|-----2-------0-0-0-0---0-0-0-0-0-0---0-0-0-0-0-----------------------------|
breakdown

e|-----x-x-----x-x-----x-x-----x-x-----x-x-----x-x---------------------------|
B|-----x-x-----x-x-----x-x-----x-x-----x-x-----x-x---------------------------|
G|-9-9-x-x-9-9-x-x-9-9-x-x-9-9-x-x-9-9-x-x-9-9-x-x---------------------------|
D|-----x-x-----x-x-----x-x-----x-x-----x-x-----x-x---------------------------|
A|-7-7-x-x-7-7-x-x-7-7-x-x-7-7-x-x-7-7-x-x-7-7-x-x---------------------------|
E|-----x-x-----x-x-----x-x-----x-x-----x-x-----x-x---------------------------|
2nd guitar

song repeats with the same parts in different order. enjoy.


Текст, аккорды и табулатура для песни "Holly Hox Forget Me Not", исполняет "Saves The Day".
Используемые в песне аккорды можно найти в разделе Как брать аккорды. Аккорды для шестиструнной гитары. Другие песни можно найти на нашем сайте, воспользовавшись алфавитным указателем вверху страницы.


 
Ошибка в тексте? Выделите ошибку и нажмите Ctrl+Enter