Come on Eileen
Save Ferris
By: MillerTime

Opening Bagpipe Solo:

|------------------------------------------13--13--12-----------------------------------|
|------------------------------13------15--------------15--13---------------------------|
|--14--12------12----------14------15--------------------------15--14--12h14p12-----12--|
|----------15------15--15--------------------------------------------------------15-----|
|---------------------------------------------------------------------------------------|
|---------------------------------------------------------------------------------------|


Opening Verse Chords:
|F  C||F  Bb||Bb- F||C  C| (2x)

Opening Verse Riff: (2x)
   F      C      F      Bb        Bb-     F       C
|--8--10--8------8--10--8--------------8------------------------|
|--------------------------11------11-----10--------------------|
|------------------------------10-------------10------9------9--|
|------------10-----------------------------------10-----12-----|
|---------------------------------------------------------------|
|---------------------------------------------------------------|

Verse Chords:
|C  C||E- E-||F  F||C  G| (6x) 
|G  G|G

Verse Riff: (4x)
   C          E-         F                C              G
|--3--5--3----3--5--3----3--5--3----------3--3--3--------3--3--3--|
|-----------------------------------5--6-----------5--6-----------|
|-----------------------------------------------------------------|
|-----------------------------------------------------------------|
|-----------------------------------------------------------------|
|-----------------------------------------------------------------|

Riff End for 4th/5th Verse:

|--3----------|
|----5--------|
|-------5--0--|
|-------------|
|-------------|
|-------------|


CHORUS: 
|D  D||A  A|B#- B#-|G  A| (2x)

Riff after Chorus: (2x)
  A         A
|-5-5-5-5-5-5-5-7-5-7-5----|
|-----------------------7--|
|--------------------------|
|--------------------------|
|--------------------------|
|--------------------------|

Verse: (3x)

Chorus: (3x)

Bridge:
|D  D||F#- F#-||G  G||D  A| (3X)

Chorus: Repeat To Fade


Текст, аккорды и табулатура для песни "Come On Eileen", исполняет "Save Ferris".
Используемые в песне аккорды можно найти в разделе Как брать аккорды. Аккорды для шестиструнной гитары. Другие песни можно найти на нашем сайте, воспользовавшись алфавитным указателем вверху страницы.


Слушать онлайн Come On Eileen


Simon WarnerCome On Eileen на Яндекс.Музыке


 
Ошибка в тексте? Выделите ошибку и нажмите Ctrl+Enter