Savage Garden - The Animal Song 
   Tabbed by Nick Thom 
   Website:http://zip.to/buffy 

   Chords used: 
   F# 
   e--2------------------------------------------ 
   b--2------------------------------------------ 
   g----------3---------------------------------- 
   d-----------------4--------------------------- 
   a-----------------4--------------------------- 
   e--2------------------------------------------ 

   F#5 
   exxxxxxxxxxxxxxxxxxxxxxxxxx 
   bxxxxxxxxxxxxxxxxxxxxxxxxxx 
   gxxxxxxxxxxxxxxxxxxxxxxxxxx 
   d-----------------4--------------------------- 
   a-----------------4--------------------------- 
   e--2------------------------------------------ 

   F#sus 
   e--2------------------------------------------ 
   b--2------------------------------------------ 
   g-----------------4--------------------------- 
   d-----------------4--------------------------- 
   a-----------------4--------------------------- 
   e--2------------------------------------------ 

   G#m7 
   e--4------------------------------------------ 
   b--4------------------------------------------ 
   g--4------------------------------------------ 
   d--4------------------------------------------ 
   a-----------------6--------------------------- 
   e--4------------------------------------------ 

   C#sus 
   e--4------------------------------------------ 
   b----------------------7---------------------- 
   g-----------------6--------------------------- 
   d-----------------6--------------------------- 
   a--4------------------------------------------ 
   exxxxxxxxxxxxxxxxxxxxxxxxxx 

   C# 
   e--4------------------------------------------ 
   b-----------------6--------------------------- 
   g-----------------6--------------------------- 
   d-----------------6--------------------------- 
   a--4------------------------------------------ 
   exxxxxxxxxxxxxxxxxxxxxxxxxx 

   B 
   e--2------------------------------------------ 
   b-----------------4--------------------------- 
   g-----------------4--------------------------- 
   d-----------------4--------------------------- 
   a--2------------------------------------------ 
   exxxxxxxxxxxxxxxxxxxxxxxxxx 

   B/F# 
   e--2------------------------------------------ 
   b-----------------4--------------------------- 
   g-----------------4--------------------------- 
   d-----------------4--------------------------- 
   a--2------------------------------------------ 
   e--2------------------------------------------ 

   D#min7 
   e--6------------------------------------------ 
   b-----------7--------------------------------- 
   g--6------------------------------------------ 
   d-----------------8--------------------------- 
   a--6------------------------------------------ 
   exxxxxxxxxxxxxxxxxxxxxxxxxx 


   Verse 1: 
   F#, Fsus, G#m7, C#sus, x4 

   Chorus1: 
   F#, Bmaj, G#m7, C#sus x2 
   F#, Bmaj, G#m7, C#sus D#m7, Bmaj G#min7, C#sus 

   Interlude: 
   F#, B/F#, G#m7, C#, x2 

   Verse 2(including pre chorus): 
   F#, Fsus, G#m7, C#sus, x8 

   Chorus 2: 
   F#, Bmaj, G#m7, C#sus x2 
   F#, Bmaj, G#m7, C#sus D#m7, Bmaj G#min7, C#sus D#m7 

   Verse 3: 
   F#5, D#m7, x2 
   D#m7 

   Repeat Verse 1 

   Repeat chorus to fade. 

   Thanks for looking. 


Текст, аккорды и табулатура для песни "Animal Song", исполняет "Savage Garden".
Используемые в песне аккорды можно найти в разделе Как брать аккорды. Аккорды для шестиструнной гитары. Другие песни можно найти на нашем сайте, воспользовавшись алфавитным указателем вверху страницы.


 
Ошибка в тексте? Выделите ошибку и нажмите Ctrl+Enter