ARTIST-Satyricon
SONG-Fuel for hatred
ALBUM-Volcano
Tabbed By-Big Bear 
Tuning-standard

LEGEND;
vibrato-~
slide up-/
slide down-
natural harmonic-()
pinch/artificial harmonic-PH/AH
tap-T
palm mute-PM
fretting hand mute-x
tremolo pick (pick as fast as possible)-TP


RIFF 1

E|------------------------------------|---------------------------------|
B|------------------------------------|---------------------------------|
G|------------------------------------|---------------------------------|
D|---------9-9-9-9---------9-/10------|---------9-9-9-9-----------------|
A|-2-2-2-2-7-7-7-7-2-2-2-2-7-/8--8-~--|-2-2-2-2-7-7-7-7-2-2-2-2-7/8-7/8-|
E|-0-0-0-0---------0-0-0-0------------|-0-0-0-0---------0-0-0-0-5/6-5/6-|

RIFF 2

E|-----------------------------------------|
B|-----------------------------------------|
G|-----------------------------------------|
D|--7-8-7-8----8-8-7-8---------------------|
A|--5-6-5-6-8--6-6-5-6-8-7-7-7-7-7-7-7-7-7-|
E|----------6----------6-5-5-5-5-5-5-5-5-5-|

RIFF 3

E|--------------------------|
B|--------------------------|
G|--------------------------|
D|--------------------------|
A|-2-(5)-(5)-(5)-7-8-8-8-8--|
E|-0-(5)-(5)-(5)-5-6-6-6-6--|

RIFF 4

E|---------------------------|
B|---------------------------|
G|---------------------------|
D|---------------------------|
A|-7/8-7/82--8-7-8-9-9-9-9--|
E|-5/6-5/6--6-5-6-7-7-7-7--|

RIFF 5

E|-------------------------------------------|
B|-------------------------------------------|
G|-------------------------------------------|
D|-------------------------------------------|
A|-------------------------------------------|
E|--0-//////----0-//////----0-//////----0-6~-|


that's it .you'll have to listen to the cd for timings and where the parts
go.personally,I think the tremolo picked slide part is annoying as shit,
but it's in te song so i had to tab it.


Текст, аккорды и табулатура для песни "Fuel For Hatred", исполняет "Satyricon".
Используемые в песне аккорды можно найти в разделе Как брать аккорды. Аккорды для шестиструнной гитары. Другие песни можно найти на нашем сайте, воспользовавшись алфавитным указателем вверху страницы.


 
Ошибка в тексте? Выделите ошибку и нажмите Ctrl+Enter