-------------------------------------------------------------------------------
		Until We Say Goodbye - Joe Satriani
-------------------------------------------------------------------------------
Transcribed & tabbed by: Garett Spencley
Web: http://www.mp3.com/garett_spencley
Email: [email protected]

Tuning: EADGBE

e|--------------------------------------------------------------------8--------|
B|-------------5----------5-----------------5-----------5---5----8-10---10-10--|
G|---5---5---7----7-5-5h7---------5---5---7-------5---5---7----9---------------|
D|-7---7---7----------------7---7---7---7-------7---7--------------------------|
A|-----------------------------------------------------------------------------|
E|-----------------------------------------------------------------------------|

e|-----------------------------------------------------------------------------|
B|-10h13p108--/10--------------5----------5-----------------------------5---5-|
G|--------------------5---5---7----7-5-5h7------4-4b2-------------5---5---7---|
D|------------------7---7---7----------------7---------2-2/5-----7---7---------|
A|-----------------------------------------------------------------------------|
E|-----------------------------------------------------------------------------|

e|--------8--------------------------------------------------------------------|
B|---8-10---10-10-----8---8---8h10---------------------------------------------|
G|-9----------------9---9---9-------7h9-7h9-7-9--9-10-9h10p97-9-75---7h9-7h9-|
D|-----------------------------------------------------------------------------|
A|-----------------------------------------------------------------------------|
E|-----------------------------------------------------------------------------|

e|----------------------------------------------------------------15-13-12-10--|
B|-----------------------------------------------------------------------------|
G|-7-9--10h12~~~-10-9h10p97-7/9----7h9-7h9-7-9--------7---6-------------------|
D|-----------------------------------------------7-7-7-------7-----------------|
A|-----------------------------------------------------------------------------|
E|-----------------------------------------------------------------------------|

e|-7b-p5-3-/5-|
B|-------------|
G|-------------|
D|-------------|
A|-------------|
E|-------------|

e|------------------7-7-7-7-7-8--8--8-7-8--8-8-8-8--10--10-10--10-7-8---8--7-7--|
B|------------------7-7-7-7-7-7--7--7-7-7--7-7-7-7--7---7--7---7--7-7---7--7-10-|
G|------------------9-9-9-9-----------------------------------------------------|
D|------------------------------------------------------------------------------|
A|-7-7-----7-7-7-7--------------------------------------------------------------|
E|-5-5-5-3-5-5-5-5--------------------------------------------------------------|

e|-/20-19-15h17p15--------------------------------------------------------------|
B|------------------------------------------------------------------------------|
G|-------------------9h10-9--7-5/7--7-9-10-9-7h9p75-/7-5-/7------9h10p97----|
D|------------------------------------------------------------------------------|
A|------------------------------------------------------------------------------|
E|------------------------------------------------------------------------------|

e|-------------------10-12-13-10-12-10-12-------/15-----------------------------|
B|----------10h12h13----------------------13-10-----10h13p108------------------|
G|-10h12h14---------------------------------------------------------------------|
D|-------------------------------------------------------------7532/3/5/75--|
A|------------------------------------------------------------------------------|
E|------------------------------------------------------------------------------|

e|------------------------------------------------------13----12-----------------|
B|------------10-8-10--/15-13------------------------15----15----15-13-------13--|
G|-7h9-9b-7-9-----------------15p14-12-14-14b--12-14-------------------14-12-----|
D|-------------------------------------------------------------------------------|
A|-------------------------------------------------------------------------------|
E|-------------------------------------------------------------------------------|

e|-------------------------------------------------------------------------------|
B|-------------------------------------------------------------------------------|
G|-14-------12-------------------------------------------------------------------|
D|----1210----10h12p10---------------------------------------------------7h8h10-|
A|----------------------10h12p10-8-10-87-8-7-5-3-/5-/7-7~~~---5--7h8h10-------|
E|-------------------------------------------------------------------------------|

e|----------------------------------10-12-10----10-12-12b-10----10----------/15--|
B|-------------------------10h12h13----------13--------------13----13-10---------|
G|--------7h9-9~~~--9h10h12----------------------------------------------12------|
D|-7h8h10------------------------------------------------------------------------|
A|-------------------------------------------------------------------------------|
E|-------------------------------------------------------------------------------|

e|------------------------------------------------------------------------10-----|
B|------------------------------------------------------------13-10----------10--|
G|-10h12p10--------------------------------9b----------12b-----------13-12-------|
D|----------10h12p10-----------------10h12----12-10-12---------------------------|
A|-------------------10---8h10p87-8---------------------------------------------|
E|-------------------------------------------------------------------------------|

e|--------------------------------------------------------------------15b-13-----|
B|-13-10--------------------------------------------15---------13-15-------------|
G|-------13-12-10----12-10-----------------------------12b--14-------------------|
D|----------------12-------12-10------------10-/12-------------------------------|
A|-------------------------------12-11-10----------------------------------------|
E|-------------------------------------------------------------------------------|

e|--------------------------15b---18-15-15h17p15--------------------------------|
B|--------15---------13-15-------------------------------------------------------|
G|-----------12b--14-------------------------------------------------------------|
D|-10-/12-----------------------------------------15--17-14--15-12--1410--12-10-|
A|-------------------------------------------------------------------------------|
E|-------------------------------------------------------------------------------|

e|-------------------------|
B|-------------------------|
G|-------------------------|
D|-8-7-5-3-/5-/7-5----|
A|-------------------------|
E|-------------------------|

e|---------------------------------------------------------------------------|
B|---------------------------------------------------------------------------|
G|-5-5--------7-7-7--7-7--7-5---4-4-4--4-4--4-5--7--7-7--7-7--7-5---7-7--7---|
D|-7-7---7----7-7-7--7-7--7-7---5-5-5--5-5--5-5--7--7-7--7-7--7-7---7-7--7---|
A|-7-7---7-7-----------------------------------------------------------------|
E|-5---3-5-5-----------------------------------------------------------------|

e|-------------|
B|-------------|
G|-7-4-5-2-4-2-|
D|-------------|
A|-------------|
E|-------------|

e|--------------------------------------------------------------------8--------|
B|-------------5----------5-----------------5-----------5---5----8-10---10-10--|
G|---5---5---7----7-5-5h7---------5---5---7-------5---5---7----9---------------|
D|-7---7---7----------------7---7---7---7-------7---7--------------------------|
A|-----------------------------------------------------------------------------|
E|-----------------------------------------------------------------------------|

e|-10h12p10-8h10p8-----------------------------------------------------------|
B|-----------------8h10p8----------------------------------------------------|
G|------------------------7h9p7-7/9-5--7h9-7h9-7-9--9-10-9h10p97-9-75-----|
D|---------------------------------------------------------------------------|
A|---------------------------------------------------------------------------|
E|---------------------------------------------------------------------------|

e|---------------------------------------------------------------------------|
B|---------------------------------------------------------------------------|
G|-7h9-7h9-7-9--10h12~~~-10-9h10p97-7/9----7h9-7h9-7-9---------7---6--------|
D|--------------------------------------------------------7-7-7--------7-----|
A|---------------------------------------------------------------------------|
E|---------------------------------------------------------------------------|

e|-5------------------------------10b-8-10-/12-------------------------------|
B|---8-5----------------------------------------10-12b-p10-8-10-8-----------|
G|-------7-5---7-5---5-------7-------------------------------------9---7h9---|
D|-----------7-----7---7-5-7-------------------------------------------------|
A|---------------------------------------------------------------------------|
E|---------------------------------------------------------------------------|

e|--------------------------------------------------------------15-13-12-10--|
B|---------------------------------------------------------------------------|
G|-7h9-7-9--10h12~~~-10-9h10p97-/9--7h9-7h9-7-9--------7--6-----------------|
D|------------------------------------------------7-7-7------7---------------|
A|---------------------------------------------------------------------------|
E|---------------------------------------------------------------------------|

e|-7b-p5-3-/5--|
B|--------------|
G|--------------|
D|--------------|
A|--------------|
E|--------------|

| b  bend string
| /  slide up
|   slide down
| h  hammer-on
| p  pull-off
| ~  vibrato
| +  harmonic
| x  Mute note
==========================================================================


Текст, аккорды и табулатура для песни "Until We Say Goodbye", исполняет "Satriani Joe".
Используемые в песне аккорды можно найти в разделе Как брать аккорды. Аккорды для шестиструнной гитары. Другие песни можно найти на нашем сайте, воспользовавшись алфавитным указателем вверху страницы.


 
Ошибка в тексте? Выделите ошибку и нажмите Ctrl+Enter