#----------------------------------PLEASE NOTE---------------------------------#
#This file is the author's own work and represents their interpretation of the #
#song. You may only use this file for private study, scholarship, or research. #
#------------------------------------------------------------------------------#

 3/4
  Gtr I
|-------0-----|-------0-----|-------0-----|-------0-----|----|
|-----3---3---|-----3---3---|-----6---6---|-----3---3---|----|
|---5-------5-|---4-------4-|---7-------7-|---5-------5-|----|
|-7-----------|-3-----------|-6-----------|-7-----------|----|
|-------------|-------------|-------------|-------------|----|
|-------------|-------------|-------------|-------------|----|


|-------0-----|-------0-----|-------0-----|-------0-----|----|
|-----3---3---|-----3---3---|-----6---6---|-----3---3---|----|
|---5-------5-|---4-------4-|---7-------7-|---5-------5-|----|
|-7-----------|-3-----------|-6-----------|-7-----------|----|
|-------------|-------------|-------------|-------------|----|
|-------------|-------------|-------------|-------------|----|


|-------8-----|-------5-----|-------8-----|-------5-----|----|
|-----6---6---|-----5---5---|-----6---6---|-----5---5---|----|
|---9-------9-|---5-------5-|---9-------9-|---5-------5-|----|
|-7-----------|-7-----------|-7-----------|-7-----------|----|
|-------------|-------------|-------------|-------------|----|
|-------------|-------------|-------------|-------------|----|


|-------0-----|-------0-----|-------0-----|-------0-----|----|
|-----1---1---|-----1---1---|-----3---3---|-----3---3---|----|
|---2-------2-|---2-------2-|---4-------4-|---4-------4-|----|
|-3-----------|-3-----------|-3-----------|-3-----------|----|
|-------------|-------------|-------------|-------------|----|
|-------------|-------------|-------------|-------------|----|


|-------0-----|-------0-----|-------------|-----------|----|
|-----1---1---|-----3---3---|-------------|-----------|----|
|---2-------2-|---1-------1-|-------------|-----------|----|
|-2-----------|-2-----------|-------------|-----------|----|
|-------------|-------------|-0-2-3-----2-|-0----(0)--|----|
|-------------|-------------|-------0-4---|-----------|----|


|-------0-----|-------0-----|-------0-----|-------0-----|----|
|-----3---3---|-----3---3---|-----6---6---|-----3---3---|----|
|---5-------5-|---4-------4-|---7-------7-|---5-------5-|----|
|-------------|-3-----------|-6-----------|-7-----------|----|
|-0-----------|-------------|-------------|-------------|----|
|-------------|-------------|-------------|-------------|----|


|-------0-----|-------0-----|-------0-----|-------0-----|----|
|-----3---3---|-----3---3---|-----6---6---|-----3---3---|----|
|---5-------5-|---4-------4-|---7-------7-|---5-------5-|----|
|-------------|-3-----------|-6-----------|-7-----------|----|
|-0-----------|-------------|-------------|-------------|----|
|-------------|-------------|-------------|-------------|----|


|-------8-----|-------8-----|--------7------|--------7------|----|
|-----6---6---|-----6---6---|-----10---10---|-----10---10---|----|
|---9-------9-|---9-------9-|---9---------9-|---9---------9-|----|
|-0-----------|-0-----------|---------------|---------------|----|
|-------------|-------------|---------------|---------------|----|
|-------------|-------------|-8-------------|-8-------------|----|


|-------0-----|-------0-----|-------1-----|-------0-----|----|
|-----3---3---|-----3---3---|-----3---3---|-----1---1---|----|
|---2-------2-|---1-------1-|---2-------2-|---2-------2-|----|
|-------------|-------------|-------------|-------------|----|
|-2-----------|-------------|-0-----------|-0-----------|----|
|-------------|-0-----------|-------------|-------------|----|


|-------8-----|-------8-----|--------7------|--------7------|-------|---|
|-----6---6---|-----6---6---|-----10---10---|-----10---10---|-------|---|
|---9-------9-|---9-------9-|---9---------9-|---9---------9-|-------|---|
|-0-----------|-0-----------|---------------|---------------|-10----|---|
|-------------|-------------|---------------|---------------|-------|---|
|-------------|-------------|-8-------------|-8-------------|-------|---|


|-------|-------7-----|-------4-----|-------------|-------------|----|
|-------|-----6---6---|-----3---3---|-------6-----|-------3-----|----|
|-------|---7-------7-|---4-------4-|-----7---7---|-----4---4---|----|
|-(10)--|-6-----------|-3-----------|---6-------6-|---3-------3-|----|
|-------|-------------|-------------|-5-----------|-2-----------|----|
|-------|-------------|-------------|-------------|-------------|----|


|-------------|-------------|-------------|-------------|----|----|
|-------------|-------------|-------1-----|-------0-----|----|----|
|-------7-----|-------4-----|-----2---2---|-----1---1---|----|----|
|-----6---6---|-----3---3---|---2-------2-|---2-------2-|----|----|
|---5-------5-|---2-------2-|-------------|-------------|----|----|
|-4-----------|-1-----------|-0-----------|-0-----------|-0--|----|


|------|-------------|-------------|-------5---|-7--8---|--8--|-|-|-|-||
|------|-------------|-------5-----|-----5-----|--------|-----|-|-|-|-||
|------|-------5-----|-----5---5---|---5-------|-7--9---|-(9)-|-|-|-|-||
|------|-----7---7---|---7-------7-|-7---------|--------|-----|-|-|-|-||
|------|---7-------7-|-7-----------|-----------|--------|-----|-|-|-|-||
|-(0)--|-5-----------|-------------|-----------|--------|-----|-|-|-|-||



** Generated using Power Tab Editor by Brad Larsen: The Official Power Tab Web Site


Текст, аккорды и табулатура для песни "Tears In The Rain", исполняет "Satriani Joe".
Используемые в песне аккорды можно найти в разделе Как брать аккорды. Аккорды для шестиструнной гитары. Другие песни можно найти на нашем сайте, воспользовавшись алфавитным указателем вверху страницы.


 
Ошибка в тексте? Выделите ошибку и нажмите Ctrl+Enter