Transcribed by Thibaut Chevalier 
e-mail: [email protected]
Website: http://moitib.free.fr/

=========================================================

Artist: joe Satriani 
Album: Flying In A Blue Dream
Song: Day At The Beach (New rays from an ancien sun)

=========================================================

Clean sound, with reverb.

E||-----------------------------------------------|
B||----2---0-------0---2-----2---0----------------|
G||------------2---------------------2---2---2----|
D||---2---2---2---2---2-----2---2---2---2---2-----|
A||--0---0---0---0---0-----0---0---0---2---4------|
E||-----------------------------------------------|
						 x2
E|-----------------------------------------------||
B|----2---0--------0---2-----2---0--------0------||
G|---2---2---2(2)-2---2-----2---2---2(2)-2---1h2-||
D|--4---4---4----4---4-----4---4---4----4---2----||
A|-----------------------------------------------||
E|-----------------------------------------------||

E|-----------------0---------2---2---0---0---0----|
B|-----2---0---2-------2--------------------------|
G|----2---2---2---2---2-----2---2---2---2---2-----|
D|---0---0---0---0---0-----2---2---2---2---2------|
A|------------------------------------------------|
E|------------------------------------------------|

E|-----------------0---------2---2---4---4---4----|
B|-----2---0---2-------2--------------------------|
G|----2---2---2---2---2-----2---2---2---2---2-----|
D|---0---0---0---0---0-----2---2---2---2---2------|
A|------------------------------------------------|
E|------------------------------------------------|

E|-----5---5---7---7---9--------------------------|
B|----5---5---5---5---5------7---7---8---8---8----|
G|--------------------------7---7---7---7---7-----|
D|---7---7---7---7---7-----5---5------------------|
A|---------------------------------7---7---7------|
E|------------------------------------------------|

E|-----5---5---7---7---5--------------------------|
B|----5---5---5---5---5------7---7---8---8---8----|
G|--------------------------7---7---7---7---7-----|
D|---7---7---7---7---7-----5---5------------------|
A|---------------------------------7---7---7------|
E|------------------------------------------------|

E|-----5---5---7---7---9--------------------------|
B|----5---5---5---5---5------7---7---8---8---8----|
G|--------------------------7---7---7---7---7-----|
D|---7---7---7---7---7-----5---5------------------|
A|---------------------------------7---7---7------|
E|------------------------------------------------|

E|-------------8----10---------8----8------------------|
B|---8----10-------------10--------------10---10---10--|
G|--10---10---10---10---10----10---10---10---10---10---|
D|-----------------------------------------------------|
A|-8----8----8----8----8-----8----8----8----8----8-----|
E|-----------------------------------------------------|

E|---------------------------------------------------|
B|----13---13---12---12---12-----10--10--9---9---9---|
G|---12---12---12---12---12-----9---9---9---9---9----|
D|---------------------------------------------------|
A|--10---10---10---10---10-----7---7---7---7---7-----|
E|---------------------------------------------------|

				... slow down
E|---------------------------------------------------|
B|----13---13---12---12---12-----10--10--9---9--9-10-|
G|---12---12---12---12---12-----9---9---9---9--------|
D|---------------------------------------------------|
A|--10---10---10---10---10-----7---7---7---7---7-----|
E|---------------------------------------------------|


now play faster...

E||-----------------------------------------------|
B||----2---0-------0---2-----2---0----------------|
G||------------2---------------------2---2---2----|
D||---2---2---2---2---2-----2---2---2---2---2-----|
A||--0---0---0---0---0-----0---0---0---2---4------|
E||-----------------------------------------------|
						 x2
E|-----------------------------------------------||
B|----2---0--------0---2-----2---0--------0------||
G|---2---2---2(2)-2---2-----2---2---2(2)-2---1h2-||
D|--4---4---4----4---4-----4---4---4----4---2----||
A|-----------------------------------------------||
E|-----------------------------------------------||

E|-----------------0---------2---2---0---0---0----|
B|-----2---0---2-------2--------------------------|
G|----2---2---2---2---2-----2---2---2---2---2-----|
D|---0---0---0---0---0-----2---2---2---2---2------|
A|------------------------------------------------|
E|------------------------------------------------|

E|-----------------0---------2---2---4---4---4----|
B|-----2---0---2-------2--------------------------|
G|----2---2---2---2---2-----2---2---2---2---2-----|
D|---0---0---0---0---0-----2---2---2---2---2------|
A|------------------------------------------------|
E|------------------------------------------------|

E|-----5---5---5---5------------------------------|
B|----7---7---7---7---4------4---4---4---4--5-----|
G|--------------------------6---6---6---6---------|
D|---4---4---4---4---4-----4---4---4---4---4------|
A|------------------------------------------------|
E|------------------------------------------------|

				... slow down
E|----------------------------------------------------|
B|-----0---0---0---0---0------------------------------|
G|----2---2---2---2---2---------------------------1-2-|
D|---4---4---4---4---4-----4-4--4-4---4-4---4-4--2----|
A|------------------------9----9-----9-----9----------|
E|----------------------------------------------------|


E|-----------------------------------------------|
B|----2---0-------0---2-----2---0--------0---2---|
G|------------2--------------------1h2--2---2----|
D|---2---2---2---2---2-----2---2--0----0---0-----|
A|--0---0---0---0---0----------------------------|
E|------------------------3---3------------------|

E|-----------------------------------------------|
B|----2---0-------0---------2---0--------0-------|
G|------------2-------2------------1h2--2---1h2--|
D|---2---2---2---2---2-----2---2--0----0---0-----|
A|--0---0---0---0---0----------------------------|
E|------------------------3---3------------------|

E|-----------------------------------------------|
B|----2---0-------0---2-----2---0--------0-------|
G|------------2--------------------1h2--2---1h2--|
D|---2---2---2---2---2-----2---2--0----0---0-----|
A|--0---0---0---0---0----------------------------|
E|------------------------3---3------------------|

E|-----------------------------------------------------|
B|-----------------------------------------------------|
G|-----------------------------------------------------|
D|--6h7--6h7--6h7--6h7--6h7----4h6--4h6--4h6--4h6--4h6-|
A|-7----7----7----7----7------7----7----7----7----7----|
E|-----------------------------------------------------|


E||-----------------------------------------------|
B||-----3---3---3---3---3-----2---2---2---2---2---|
G||----6---6---6---6---6-----4---4---4---4---4----|
D||-----------------------------------------------|
A||-------------------------0---0---0---0---0-----|
E||---3---3---3---3---3---------------------------|
			   x2 (second time less loud)
E|-----------------------------------------------||
B|-----------------------------------------------||
G|-----4---4---4---4---4------2---2---2---2---2--||
D|----4---4---4---4---4------2---2---2---2---2---||
A|--------------------------0---0---0---0---0----||
E|---2---2---2---2---2---------------------------||

=========================================================


Текст, аккорды и табулатура для песни "Day At The Beach", исполняет "Satriani Joe".
Используемые в песне аккорды можно найти в разделе Как брать аккорды. Аккорды для шестиструнной гитары. Другие песни можно найти на нашем сайте, воспользовавшись алфавитным указателем вверху страницы.


 
Ошибка в тексте? Выделите ошибку и нажмите Ctrl+Enter