1st solo starts with some sliding then..

E-------12---12-----12--12-----12-------12-------12-----12-------
B--15b17-------15b17------15b17----15b17--15b17----15b17---------
G----------------------------------------------------------------
D----------------------------------------------------------------
A----------------------------------------------------------------
E----------------------------------------------------------------

E------12-------12-----12-----12-------12-----12-------12--------
B-15b17----15b17--15b17--15b17--15b17----15b17----15b17--15b17---
G----------------------------------------------------------------
D----------------------------------------------------------------
A----------------------------------------------------------------
E----------------------------------------------------------------

E-12-15b17-12-------12-------12-15b17-12-------12---x------------
B--------------15b17--15b17---------------15b17------------------
G------------------------------------------------15---12-12------
D-----------------------------------------------------------14---
A----------------------------------------------------------------
E----------------------------------------------------------------

E-12----------12----------12----------12-----------12------------
B-12h14p12----12h14p12----12h14p12----12h14p12-----12h14p12------
G----------14----------14----------14----------14-----------14---
D----------------------------------------------------------------
A----------------------------------------------------------------
E----------------------------------------------------------------

E-12----------12----------12-------12----------12h13p1210-12----
B-12h14p12----12h14p12----12----------15-15-15-------------------
G----------14---------14-----0---0-------15----------------------
D------------------------------0---------------------------------
A----------------------------------------------------------------
E----------------------------------------------------------------

E----12----------------------------------------9-7-7-------------
B-14p12----------------------------------------8---8--------7----
G----------------------------------------------------9-7---------
D--------14-12h14p12------------------------0------------9-------
A--------------------14b-14-9/11---------------------------------
E---------------------------------12-12-7/9----------------------

E--------------------------------------------------------------------
B--------------12-11-12-1110/11-12-1110/11-12-1110/11-12-1110/11-
G--7b9-7b9-7b9-------------------------------------------------------
D--------------------------------------------------------------------
A--------------------------------------------------------------------
E--------------------------------------------------------------------

E--------------------------------------------------12------12----
B-12-1110/11-12-1110/11-12-1110/11-12-1110/11----12--12------
G------------------------------------------------------14--------
D----------------------------------------------------------------
A----------------------------------------------------------------
E----------------------------------------------------------------

E----------12----------12----------------------12----------------
B-15p12h14----15p12-------15p12----12h14p12-12-------------------
G-------------------14----------14-------------------------------
D----------------------------------------------------------------
A----------------------------------------------------------------
E----------------------------------------------------------------

hard fast tapping here :-)

E-19t20p19t20p19t20p19t20p19t20p18t20p18t20p19t20p19t20p18t20p19t20-
B-------------------------------------------------------------------
G-------------------------------------------------------------------
D-------------------------------------------------------------------
A-------------------------------------------------------------------
E-------------------------------------------------------------------

E---------12-------12---------------17b(and hold)-------------------
B--15p12----15p12----15p12h14---x-----------------------------------
G-------14-------14-------------x-----------------------------------
D-----------------------------x---0---------------------------------
A-----------------------------x---------------54-6---------------------
E-----------------------------x---------------54-6---5-5-5-4-4-4-3-3-3-2-2-

the end of solo 1, ill get the other round eventually, but this is mainly correct.
its hard to play but if you can do it its ace.


Текст, аккорды и табулатура для песни "Big Bad Moon", исполняет "Satriani Joe".
Используемые в песне аккорды можно найти в разделе Как брать аккорды. Аккорды для шестиструнной гитары. Другие песни можно найти на нашем сайте, воспользовавшись алфавитным указателем вверху страницы.


 
Ошибка в тексте? Выделите ошибку и нажмите Ctrl+Enter