------------------------------------------------------------------------------- 
THE TREATY AND THE BRIDGE - Satanic Surfers 
------------------------------------------------------------------------------- 

by Phil email>>> [email protected] 

Intro: 
I've split the intro into 4 parts... 
1 guitar does this 4 times : 

e|---2-2-3-2-3-2-3-2----5-5-6-5-6-5-6-5----7-7-8-7-8-7-8-7------------| 
B|---3-3-3-3-3-3-3-3----6-6-6-6-6-6-6-6----8-8-8-8-8-8-8-8------------| 
G|--------------------------------------------------------------------| 
D|--------------------------------------------------------------------| 
A|--------------------------------------------------------------------| 
E|--------------------------------------------------------------------| 

e|---9--9-10--9----7-7-8-7--------------------------------------------| 
B|--10-10-10-10----8-8-8-8--------------------------------------------| 
G|--------------------------------------------------------------------| 
D|--------------------------------------------------------------------| 
A|--------------------------------------------------------------------| 
E|--------------------------------------------------------------------| 

The 2nd Guitar does this: 
1/4: D, Fii, G, A, G 
2/4: 
e|--------------------------------------------------------------------| 
B|--------------------------------------------6-8(bend)-6-------------| 
G|--7-5-7-5-5-7-5-------------------------5-7-------------------------| 
D|----------------7-5-7-5-5-7-5-------5-7-----------------------------| 
A|------------------------------5-5-8---------------------------------| 
E|--------------------------------------------------------------------| 

3/4: 
e|--------------------------------------------------------------------| 
B|----5-6-8-6-5---5-6-8-6-5---5-6-8-6-5-8-6-5-------------------------| 
G|--7-----------7-----------7------------------7-7-7------------------| 
D|---------------------------------------------7-7-7------------------| 
A|---------------------------------------------5-5-5------------------| 
E|--------------------------------------------------------------------| 

4/4:Just do the same as the 2/4 


Verse: D, C, Fii, A, Fii, C, Bb, Fii, C X2 
D, Bb, C 
e|-------------------------| 
B|-------------------------| 
G|-------------------------| 
D|-------------------------| 
A|------8-7----------------| 
E|----------8--------------| 

D, Bb, C 
e|-------------------------| 
B|-------------------------| 
G|-------------------------| 
D|-----7-5-----------------| 
A|---------8---------------| 
E|-------------------------| 

Bb, C, D, C, Bb, A, C 

Chorus: D, D, D } 
e|-------------------------| } 
B|-------------------------| } 
G|--------2----------------| } 
D|--0-2-3---3-2-0----------| } 
A|-------------------------| } 
E|-------------------------| } 
} X2 
Bb, Bb, Bb } 
e|-------------------------| } 
B|-------------------------| } 
G|--------2----------------| } 
D|--0-2-3---3-2-0----------| } 
A|-------------------------| } 
E|-------------------------| } 
} 
C, A } 
} 

The second time this is done the other guitar does this: 
e|-------------------------| 
B|-------------------------| 
G|-------------------------| 
D|---3-0-2---0-------------| 
A|---------3---------------| 
E|-------------------------| 

Verse: Same as 1st Verse... 

Chorus: Same as 1st Chorus... 

Bridge: D, F, G, A, G X3 

Ending: D, F, G, D, D, D, D 
e|-------------------------| 
B|-------------------------| 
G|-------5-----------------| 
D|---5-7-------------------| 
A|-------------------------| 
E|-------------------------| 

=============================================================================


Текст, аккорды и табулатура для песни "The Treaty And The Bridge", исполняет "Satanic Surfers".
Используемые в песне аккорды можно найти в разделе Как брать аккорды. Аккорды для шестиструнной гитары. Другие песни можно найти на нашем сайте, воспользовавшись алфавитным указателем вверху страницы.


Слушать онлайн The Treaty And The Bridge


Satanic SurfersThe Treaty And The Bridge на Яндекс.Музыке


 
Ошибка в тексте? Выделите ошибку и нажмите Ctrl+Enter