------------------------------------------------------------------------------- 
SOOTHING - Satanic Surfers 
------------------------------------------------------------------------------- 

By:emilio guinea E-mail:?????@!!!!.?! 

INTRO: 

GUITAR1: D, A#, G, A (x6) A 

GUITAR2: D, A#, G, A (x2) 
D-Eii, A#-Fii, D-Eii, A-D-Eii (x2) 
A-D-Eii (x2) 

VERSE: D, A# (x2) 
C, A 
D, A# (x2) 
C, A, A#, A#-C 

CHORUS: Fii, A, D, C 
A#, G, C 

E |--------------------- 
B |--------------------- 
G |--------------------- 
D |----5p3-------------- 
A |-3-------5p3--3-5---- 
E |--------------------- 

(REPEAT) 

GUITAR1: A 

CHORUS: 

OUTRO: D 
GUITAR1: GUITAR2: 
E |-------------------------- E |-------------------------- 
B |-------------------------- B |-------------------------- 
G |-5h7p5-------------------- G |-7-5---------------------- 
D |--------7-6-5------------- D |------7-6-5-----5-----5--- 
A |---------------8-8-7------ A |-------------8-----8------ 
E |----------------------8--- E |-------------------------- 

GUITAR1: 
E |---------------------------------------------------------- 
B |-15------------------------------------------------------- 
G |-----7~--7-5-7--9h10p9--10-9-10-9------------------------- 
D |-----------------------------------7--6h7p6--7-6-7-------- 
A |----------------------------------------------------8-5--- 
E |---------------------------------------------------------- 

E |--------------------------5------------------------------- 
B |--------------5-6-8--5-6----8-6-5--6-5----5--------------- 
G |---------5-7----------------------------7---7-5--7-7-7-7-- 
D |-7----7------------------------------------------7-7-7-7-- 
A |-------------------------------------------------5-5-5-5-- 
E |---------------------------------------------------------- 

GUITAR2: D, A# (x2) 
D-C-A# 
A-A#-C 
A-C-D 

-------------------------------------------------------------------------------


Текст, аккорды и табулатура для песни "Soothing", исполняет "Satanic Surfers".
Используемые в песне аккорды можно найти в разделе Как брать аккорды. Аккорды для шестиструнной гитары. Другие песни можно найти на нашем сайте, воспользовавшись алфавитным указателем вверху страницы.


Слушать онлайн Soothing


Satanic SurfersSoothing на Яндекс.Музыке


 
Ошибка в тексте? Выделите ошибку и нажмите Ctrl+Enter