---------------------------------------------------------------------------------------------
				SATANIC SURFERS - good morning
---------------------------------------------------------------------------------------------
Sylvain Bussiиres
[email protected]

Intro
G----------------------------------6---------------------------------------------------------
D----------------2-------------7-9-----------------------------------------------------------
A----5-5-5-4--------5-----7-9----------------------------------------------------------------
E--5----------2--------0---------------------------------------------------------------------

Riff A
G-----------------------------------------6--------------------------------------------------
D----------------------2>-------------7-9----------------------------------------------------
A---------5-5-5-4---------5-4-----7-9--------(2X)--------------------------------------------
E--5>-4>-----------2>----------0-------------------------------------------------------------

Riff B
G--------------------------------------------------------------------------------------------
D---------6-4------4-2------2>---------------------------------------------------------------
A-----4>-------------------------------------------------------------------------------------
E--5>----------2>-------0>-------------------------------------------------------------------

Riff C
G--------------------------------------------------------------------------------------------
D----------------2---------------------------------------------------------------------------
A--0>-2>-----4-5-----------------------------------------------------------------------------
E---------2----------------------------------------------------------------------------------

Riff A, 2X

Riff D
G--------------------------------------------------------------------------------------------
D--------------------------------------------------------------------------------------------
A--------5>-------(2X)-----------------------------------------------------------------------
E--5>-4>-----0>------------------------------------------------------------------------------

Riff E
G--------------------------------------------------------------------------------------------
D-----------------5-4----7---------------------4>-2>-----------------------------------------
A----5-4---7---5------7------5-4---7--5-4-2----------(2X)------------------------------------
E--5-----7-----------------5-----7----------2>-----------------------------------------------

Riff B, 2X
riff C, 
Riff D, 4X
Riff E, 2X
Intro,

Riff F
G----------------------------------7---------------------------------------------------------
D----------7-----------9-------------------7-5-4---4-----------------------------------------
A--------------7-7-7-7---7-9-9-9-9---7-5-5-------5-------------------------------------------
E--5-5-5-5---5-------------------------------------------------------------------------------

Riff G
G-----------------------------------7--------------------------------------------------------
D--------------------------------------------7-5-4---4---------------------------------------
A--------------7-7-7-7-5-7--9-9-9-9---7--5-5-------5-----------------------------------------
E--5-5-5-5-0-5-------------------------------------------------------------------------------

Use the riffs F and G to finish the song. They are played several times. Maybe there
are some modifications for the last ones... Tomek is a crazy bass player and I bet
you don't want to play the song exactly as he does. I don't really care about 
the little variations of the last riffs. If you do, e-mail me and I'll tab them out.


Текст, аккорды и табулатура для песни "Good Morning", исполняет "Satanic Surfers".
Используемые в песне аккорды можно найти в разделе Как брать аккорды. Аккорды для шестиструнной гитары. Другие песни можно найти на нашем сайте, воспользовавшись алфавитным указателем вверху страницы.


Слушать онлайн Good Morning


Satanic SurfersGood Morning на Яндекс.Музыке


 
Ошибка в тексте? Выделите ошибку и нажмите Ctrl+Enter