By: Alan 

Intro x4 
|---------------------------------------------------------------------| 
|---5-5-55--55--4h5-5-------------------------------------------------| 
|---6-6-66--66--6---6-------------------------------------------------| 
|---6-6-66--66--6---6-------------------------------------------------| 
|---4-4-44--44--4---4-------------------------------------------------| 
|---------------------------------------------------------------------| 

Verse x4 

Guitar One- same as intro 

Guitar Two 
|---------------------------------------------------------------------| 
|---------------------------------------------------------------------| 
|--6----6-----2-2-2-22-2-2--------------------------------------------| 
|--6----6-----2-2-2-22-2-2--------------------------------------------| 
|--4----4-----0-0-0-00-0-0--------------------------------------------| 
|---------------------------------------------------------------------| 

Pre chorus (both Guitars) x1 
|---------------------------------------------------------------------| 
|---------------------------------------------------------------------| 
|---------4-44-4---2-2-22-2-2-2-2-2-22-2-2----------------------------| 
|-2---2---4-44-4---2-2-22-2-2-2-2-2-22-2-2----------------------------| 
|-2---2---2-22-2---0-0-00-0-0-0-0-0-00-0-0----------------------------| 
|-0---0---------------------------------------------------------------| 

Repeat Verse x4 

Pre Chorus 2 x1 
|---------------------------------------------------------------------| 
|---------------------------------------------------------------------| 
|---------4-44-4---2-2-22-2-2-2-2-2-22-2-2---6-6-66-6--4-4-44-4-------| 
|-2---2---4-44-4---2-2-22-2-2-2-2-2-22-2-2---6-6-66-6--4-4-44-4-------| 
|-2---2---2-22-2---0-0-00-0-0-0-0-0-00-0-0---4-4-44-4--2-2-22-2-------| 
|-0---0---------------------------------------------------------------| 

Pm . . . . . . . . . 
|---------------------------------------------------------------------| 
|---------------------------------------------------------------------| 
|--9-9-99-99-99--2-2-22-22-22--4-4-44-44-44-4/6-2---------------------| 
|--9-9-99-99-99--2-2-22-22-22--4-4-44-44-44-4/6-2---------------------| 
|--7-7-77-77-77--0-0-00-00-00--2-2-22-22-22-2/4-0........-------------| 
|---------------------------------------------------------------------| 

For the next part(still pre chorus 2) 

Guitar one plays 
|---------------------------------------------------------------------| 
|----5-5-55-5-5-4h5-5-5-55-5-5-4h5------------------------------------| 
|---------------------------------------------------------------------| 
|---------------------------------------------------------------------| 
|---------------------------------------------------------------------| 
|---------------------------------------------------------------------| 

while guitar two plays 
|---------------------------------------------------------------------| 
|---------------------------------------------------------------------| 
|------9-9-99-9-9-99--2-2-22-2-2-22--4-4-44-4-4-44-4/6-2--------------| 
|------9-9-99-9-9-99--2-2-22-2-2-22--4-4-44-4-4-44-4/6-2--------------| 
|------7-7-77-7-7-77--0-0-00-0-0-00--2-2-22-2-2-22-2/4-0........------| 
|---------------------------------------------------------------------| 

Repeat verse x4 

Prechorus 4 
|---------------------------------------------------------------------| 
|---------------------------------------------------------------------| 
|---------4-44-4---2-2-22-2-2-2-2-2-22-2-2---6-6-66-6--4-4-44-4-------| 
|-2---2---4-44-4---2-2-22-2-2-2-2-2-22-2-2---6-6-66-6--4-4-44-4-------| 
|-2---2---2-22-2---0-0-00-0-0-0-0-0-00-0-0---4-4-44-4--2-2-22-2-------| 
|-0---0---------------------------------------------------------------| 

|---------------------------------------------------------------------| 
|---------------------------------------------------------------------| 
|--9----------2----------4-------(4)/6--2-----------------------------| 
|--9----------2----------4-------(4)/6--2-----------------------------| 
|--7......----0......----2.....--(2)/4--0......-----------------------| 
|---------------------------------------------------------------------| 
we'd still be playing..... (x2) 

meanwhile guitar one plays (x8) 
|---------------------------------------------------------------------| 
|--5-5-55-5-5-4h5-5---------------------------------------------------| 
|---------------------------------------------------------------------| 
|---------------------------------------------------------------------| 
|---------------------------------------------------------------------| 
|---------------------------------------------------------------------| 

Then Chorus is the same as above (hero of our time bit) 

Solo 

guitar one 
|---------------------------------------------------------------------| 
|------9-7-9-7/5-5--------------------------------------9-7-9-7/5-5---| 
|--7/9----------------------------------------------7/9---------------| 
|---------------------------------------6-4-2-------------------------| 
|--------------------2h4-(4)/6-4-2--4/6-------------------------------| 
|---------------------------------------------------------------------| 

|---------------------------------------------------------------------| 
|---------------------------------------------------------------------| 
|---------------------------------------------------------------------| 
|--------------------4-6-9-9------------------------------------------| 
|--2h4-(4)/6-4-2-4/6--------------------------------------------------| 
|---------------------------------------------------------------------| 

Repeat chorus x2 

End on 
|---------------------------------------------------------------------| 
|---------------------------------------------------------------------| 
|--9-9-(9)-----------------------------------------------------------| 
|--9-9-(9)-----------------------------------------------------------| 
|--7-7-(7)-----------------------------------------------------------| 
|---------------------------------------------------------------------| 

Note: h- hammer on 
(x)- Ghost note (don't strum) 
/- slide up 
- slide down 
.- if above note, palm mute, if lots after a note, hold the note


Текст, аккорды и табулатура для песни "Aim To Please", исполняет "Satanic Surfers".
Используемые в песне аккорды можно найти в разделе Как брать аккорды. Аккорды для шестиструнной гитары. Другие песни можно найти на нашем сайте, воспользовавшись алфавитным указателем вверху страницы.


Слушать онлайн Aim To Please?


Satanic SurfersAim To Please? на Яндекс.Музыке


 
Ошибка в тексте? Выделите ошибку и нажмите Ctrl+Enter