Hi! Me Again, by d way i'm Niсo from LSM. Here's my tab of the song of arnee, true. hope u like it.

Tuning: Standard
Capo on 2nd fret

Intro: AM7-F#m7-D-C#m7
verse: AM7-F#m7-D-F
       AM7-F#m7-D-F-D-C#m7

Pre-chorus: D-C#m7-D-F#m7
            D-C#m7-F#m7-F

Chorus: AM7-F#m7-D-C#m7
        AM7-F#m7-D-C#m7
        D-Dsus-D(hold)

Adlib:
--6s8---5-5s6--5--6--5--3--5---1-----10-8-8-6--3--5--1----------------------
----------------------------------1--------------------1--1s3-3s5-3-1-------
----------------------------------------------------------------------2-----
----------------------------------------------------------------------------
----------------------------------------------------------------------------
----------------------------------------------------------------------------


------3--------7-5---10-9-12-10-14-12-17-16---------------------------------
--3s5-----7-5---------------------------------------------------------------
----------------------------------------------------------------------------
----------------------------------------------------------------------------
----------------------------------------------------------------------------
----------------------------------------------------------------------------

Repeat Pre-chorus then chorus

That's it hope u like my tab. [email protected]}


Текст, аккорды и табулатура для песни "True", исполняет "Santos Paolo".
Используемые в песне аккорды можно найти в разделе Как брать аккорды. Аккорды для шестиструнной гитары. Другие песни можно найти на нашем сайте, воспользовавшись алфавитным указателем вверху страницы.


 
Ошибка в тексте? Выделите ошибку и нажмите Ctrl+Enter