Title: Till they take my heart away
Revive by: Paolo Santos
Tuning: Standard
Transcribed by: lee Martin 


Intro”

E--------0------------------0--------------0---------0------------0---0-----
B----4-------4---4------4-------4--------------4---4---4------2---2-----4---
G--4---4---4---4------4---4---4---4------4---4---4----------2-------2-----4-
D------------------------------------2--------------------------2-----------
A--------------------------------------4------------------0-----------------
E-0-----------------0-------------------------------------------------------

E--------0------------------0--------------0---2---0---0----------0---------
B----4-------4---4------4-------4-----------------------------2-------------
G--4---4---4---4------4---4---4---4------4---4---4---4------2---2-----------
D------------------------------------2--------------------------------------
A--------------------------------------4------------------0-----------------
E-0-----------------0-------------------------------------------------------

Verse”

*just like intro---just play with the strings…especially on the last chord.

Pre-Chorus”

1st
E-----------------0------------------------------2-------------------
B--2--2---------0---0---------5-4-----5--------2---2------2---2------
G--2--2-------1-------1-------4-4-4-4-4------2-------2----2---2------
D-----------2---------------2--------------2-----------2----2--------
A--0--2-----------------0-4-----------4--0----------------2---2------
E--------0-----------------------------------------------------------

2nd
E----------------------------------------------------------
B--2--2--4--------5-4-----5------0-2-2--2-2--2-4-----------
G--2--2--4--------4-4-4-4-4------2-2-2--2-2--2-4-----------
D---------------2--------------2---------------------------
A--0--2--4--0-4-----------4--0----------0-2--2-4-----------
E----------------------------------------------------------

3rd
E----------------------0--------------------------------------------
B--------2--2--------0---0-----------5-4-----5------2--2-2--2-4-----
G------1-2--2------1-------1---------4-4-4-4-4----1-2--2-2--2-4-----
D----2-----------2-----------2-----2--------------2-----------------
A--0--------2------------------0-4-----------4--0------0-2--2-4-----
E--------------0----------------------------------------------------



Chorus”

1st & 2nd 
E--------------------------------------------------
B--2--2--4------5-4-----5--2--2--------------------
G--2--2--4------4-4-4-4-4--2--2--------------------
D-------------2------------------------------------
A--0--2--4--4-----------4--0--2--------------------
E--------------------------------------------------

3rd 
E-----------------------------------------------------
B--4--4--6------7-6-----7--4-4-4--4-6-----------------
G--4--4--6------6-6-6-6-6--4-4-4--4-6--*and so on…----
D-------------4---------------------------------------
A--2--4--6--6-----------6--2-2-4--4-6-----------------
E-----------------------------------------------------

Bridge”
(right after 2nd Chorus)

E--------------------------------------------------
B--7--5-7p5---4----2--2--4--4--6-7-6--4--4---------
G--7--4-----4-4----2--2--4--4--6-6-6--4--4---------
D--0---------------2-------------------------------
A-----4-------4-------2--2--4--6-6-6--2--4---------
E--------------------------------------------------

Outro”

*play with intro chords…a whole step higher…

i love angelica lee!!!!!!
so sweet...


Текст, аккорды и табулатура для песни "Till They Take My Heart Away", исполняет "Santos Paolo".
Используемые в песне аккорды можно найти в разделе Как брать аккорды. Аккорды для шестиструнной гитары. Другие песни можно найти на нашем сайте, воспользовавшись алфавитным указателем вверху страницы.


 
Ошибка в тексте? Выделите ошибку и нажмите Ctrl+Enter