Princess
Paolo Santos

[email protected]

Standard tuning: (EADGBE)

Intro:

E---------------|----------------
B---0-----1-0---|---0------1-0---
G-1-----------4-|-1------------4-
D-----4-2-------|-----4-2--------
A-0-------0-----|-0--------0-----
E---------------|----------------

E---0------0---|----------------
B-2--0---2---0-|---0----0-------
G-----0--------|-1------1-------
D--------------|----4-2---------
A-0------0-----|-0------0-------
E--------------|----------------

Verse:
The walls of my castle..

E-0--2--2--2--
B-0--2--3--2--
G-2--2--2--2--
D-2--2--4--2--
A-0--4--2--4--
E----2-----2--

Pre-chorus:
Give me one more chance...

E-2--4--2--0--------2--42--2--0--
B-2--5--3--5--------2--52--3--5--
G-2--4--2--4--------2--42--2--4--
D-0--6--4--2--------0--62--4--2--
A----4--2--------------44--2-----
E---------------------------------

Chorus:
My princess has left me...

E-0--4--2--0/52--
B-0--5--3--5/52--
G-2--4--2--4/44--
D-2--6--4--2/22--
A-0--4--2---------
E-----------------

E--4--2--2--0--
B--5--2--3--5--
G--4--2--2--4--
D--6--2--4--2--
A--4--4--2-----
E-----2--------


Текст, аккорды и табулатура для песни "Princess", исполняет "Santos Paolo".
Используемые в песне аккорды можно найти в разделе Как брать аккорды. Аккорды для шестиструнной гитары. Другие песни можно найти на нашем сайте, воспользовавшись алфавитным указателем вверху страницы.


 
Ошибка в тексте? Выделите ошибку и нажмите Ctrl+Enter