Play With Me
Paolo Santos

[email protected]

Standard Tuning: (EADGBE)

Intro / Chorus:
(Strumming)

E-------------|--------------------------|
B--0--0--0--0-|--3--3--3--0--------------|
G--2--2--2--2-|--2--2--2--2--------------|
D--2--2--2--2-|--0-----4--0--------------|
A--0----------|-----4--2--0--------------|
E-----4--2--0-|-----------3--------------|

E-------------|-------------|-------------------------------|
B--0--0--0--0-|--3--3--3--2-|---------3-2-----------3-2-----|
G--2--2--2--2-|--2--2--2--2-|----2------2-------2-----2-----|
D--2--2--2--2-|--0-----4--4-|---0-----2--------0----2-------|
A--0----------|-----4--2--2-|-------0--------------0--------|
E-----4--2--0-|-------------|--3-------------3--------------|

Verse:
Long hard day...

E------------------------------|
B-3--0--2----3--0--2-----------|
G-2--2--2----2--2--2-----------|
D-4--0--2----4--0--2-----------|
A-2--0--0----2--0--0-----------|
E----3----------3--------------|

I took the shower...

E------------------0-----------|
B-3--0--2----3--0--0-----------|
G-2--2--2----2--2--1-----------|
D-4--0--2----4--0--2-----------|
A-2--0--0----2--0--2-----------|
E----3----------3--0-----------|

Chorus: same as verse

Bridge:
You take my breath away...

E-------------------------------------------------------|
B--3--0-----5-3-2-3-3h5-----5-3-2-3---------------------|
G--2--2-----------------------------2-------------------|
D--4--0-----2-2-----0-------2-2-------------------------|
A--2--0--0---------------0------------------------------|
E-----3-------------------------------------------------|

Such a feeling that i can't describe...

E-------------------------------------------------------|
B--3--0-----5-3-2-3-3h5-----5-3-2-3---------------------|
G--2--2-----------------------------2-------------------|
D--4--0-----2-2-----0-------2-2-------------------------|
A--2--0--0---------------0------------------------------|
E-----3-------------------------------------------------|

whenever I'm around you...I know that I'm alive,alive!

E-------------0------------|
B--3--0--2----0------------|
G--2--2--2----1------------|
D--4--0--2----2------------|
A--2--0--0----2------------|
E-----3-------0------------|

Outro:

E-------------|---------------------------|
B--0--0--0--0-|--3--3--3---5--------------|
G--2--2--2--2-|--2--2--2-2-2--------------|
D--2--2--2--2-|--0-----4-4-4--------------|
A--0----------|-----4--2---2--------------|
E-----4--2--0-|---------------------------|

***end***


Текст, аккорды и табулатура для песни "Play With Me", исполняет "Santos Paolo".
Используемые в песне аккорды можно найти в разделе Как брать аккорды. Аккорды для шестиструнной гитары. Другие песни можно найти на нашем сайте, воспользовавшись алфавитным указателем вверху страницы.


 
Ошибка в тексте? Выделите ошибку и нажмите Ctrl+Enter