Overjoyed
Paolo Santos

[email protected]

Standard Tuning: (EADGBE)
original tune is one fret higher

Intro:

E---------------------------------
B---------------------------------
G--2---2--2---2--2---2--2---2-----
D--2-2----1-1----0-0----1-1-------
A--3------2------1------2---------
E---------------------------------

E------------------------------
B------------------------------
G--2---2--2---2--2-2-2-2-------
D--2-2----1-1----0-0-0-2-------
A--3------2------1-1-1-0-------
E------------------------------

Verse:
Overtime i've been building my castle of love...

E--2--2--0--0-
B--2--3--0--32-
G--2--2--0--0-
D--0--4--2--22-
A-----2--2--0-
E--------0------

just for two..

E-2--2----------------------
B-2--3--5-/-7---------------
G-2--2--4-/-6---------------
D-0--4--2-/-4---------------
A----2----------------------
E-------4-/-6---------------

i've gone much too far...

E---------2-0---0-0----------
B-2---7---3-0---2-0----------
G-4---6---2-1---2-2----------
D-4---4---4-2---2-2----------
A-2-------2-2---0-0----------
E-----6-----0----------------

Chorus:
And though you don't believe that they do...

E--0------0-----0------------
B--0--3---0-2---1-0----------
G--0--2---0-2---0-4----------
D--0--0---2-2---2-4----------
A--2--0---2-0---3-2----------
E--3--2---0------------------

And maybe too if you would believe...

E-------------0------------
B-0--55---0--32------------
G-2--44---0--0------------
D-2--22---2--22------------
A-0--------2--0------------
E----43---0-----------------

Ablib: same as intro

Last chorus: play (x24242) before this
And though the odd say improbable...

E-------2-2---0-------------
B-0--5--2-4---3-4-----------
G-2--4--2-2---2-6-----------
D-2--2--2-4---0-6-----------
A-0-----4-2-----4-----------
E----4--2-------------------

And maybe with a chance you would find...

E---------2--22-------------
B-0--77--2--54-------------
G-4--66--2--22-------------
D-4--44--2--44-------------
A-2-------4--22-------------
E----65--2------------------

Outro:
Over you...     over you....

E--0--1--0-----------2*------
B--0--1--0------32--3*------
G--1--2--0------0--2*------
D--2--3--0------22--0*------
A--2--3--2------0----------
E--0--1--3-------------------


Текст, аккорды и табулатура для песни "Overjoyed", исполняет "Santos Paolo".
Используемые в песне аккорды можно найти в разделе Как брать аккорды. Аккорды для шестиструнной гитары. Другие песни можно найти на нашем сайте, воспользовавшись алфавитным указателем вверху страницы.


 
Ошибка в тексте? Выделите ошибку и нажмите Ctrl+Enter